A La Madre, Gloria Trevi (acordes)

Autor: Anónimo | 29547 visualizaciones

abmdemfsosgmla
No olviden bajar la cuerda de Mi a Re.

INTRO

G |-------------|----------------|-----------------|----------------|
D |----------0--|----------------|----------0h3h0--|----------------|
A |-------3-----|----------------|--------3--------|----------------|
D |--0----------|--8---7/8-7/----|--0--------------|--8----8-7-7/---|


Riff 1                                                 Puente

G |--------------|---------------|------------------|| -----------------|
D |----------0---|-----------0---|-----------------*|| -----------------|
A |-------3------|--3-----3------|-----------------*|| -----------------|
D |--0-----------|---------------|--8----8h7---7/---|| -8----8h7---7/---|


CORO: Círculo de D : D - Bm - Em - A


[A La Madre]

Riff 1
Madres, les canto toda ésta canción,
canto ésta canción a toda Madre.
Vales todo el oro del mundo,
todo el oro del mundo vales Madre.
Me pongo en ti mi amor,
mi amor yo pongo en la Madre.
Es poca la dicha que te doy,
la dicha que te doy es poca Madre.

Puente   CORO
Es poca Madre,
todo el mundo me hace recordarte,
me mandan siempre a saludarte,
por eso hoy canto a la Madre.
Te menciono a cada frase,
¿qué haría yo sin ésta Madre?
Por eso hoy canto a la Madre.

INTRO

[A La Madre]
Riff 1
Madre, eres pura como el agua,
como el agua eres pura Madre.
Te doy todo lo que soy,
pues lo que tú me diste es una Madre.
Quiero que me dés un beso,
yo quiero que un beso me des-Madre.
No tengo más que decir,
más que decir no tengo Madre.

Puente _  CORO
No tengo Madre,
todo el mundo me hace recordarte,
me mandan siempre a saludarte,
por eso hoy canto a la Madre.
Te menciono a cada frase,
¿qué haría yo sin ésta Madre?
Por eso hoy canto a la Madre.

[La-La-La-La-La-La...]
D            Bm            Em
Las Madres me enseñaron en la escuela,
A           D                         Bm
en la escuela me enseñaron puras Madres.
   Em                         Gm
Que la Madre da la vida en el parto,
A   Bm-A-Gm                A
que da la vida en el parto la Madre.
    D    Em     F#
¡Ma-a-a-a-a-a-a-dre!
Calificar esta versión:
Aviso: Este fichero es trabajo propio de su transcriptor y representa su interpretación personal de la canción. El material contenido en esta página es para exclusivo uso privado, por lo que se prohibe su reproducción o retransmisión, así como su uso para fines comerciales.