El Juego De Sandy, Gianluca Grignani (tablatura)

Autor: Anónimo | 31469 visualizaciones

Introducción y puente:

F#m                D/A             E
|----------2------------2------------0---------|
|--------2---2-------------3------------0------|
|------2-------2--------------2------------1---|
|----------------------------------------------|
|--------------------0-------------------------|
|--2------------------------------0------------|

Verso:

  F#m                  E                           D/A                       E
|----------2--------------------0-------------------2---------------------0---------|
|--------2---2---------------0-----0-------------3-----3---------------0-----0------|
|------2-------2----------1-----------1-------2-----------3---------1-----------1---| 
|-----------------------------------------------------------------------------------|    
|-------------------------------------------0---------------------------------------|
|--2-----------------0--------------------------------------------0-----------------|



Intro:  F#m  D/A-E

(Verso x2)
Sandy era una chiquilla
Controlaba con su cuerpo de maravilla
Se divertía jugando al amor
Me enseñaba todo lo que ahora sé.
(Puente x2)

(Verso x2)
Pero en su mente en un mal día
Cruza una idea que yo presentía
Y aquellos juegos de amor para mí
Ahora son caricias a alto precio que
(Puente)
(Puente)
(sólo son caricias a alto precio...)

(Verso)
Sandy 
andas de acá para allá
                      (Puente)      
Tú con tus juegos de sexo
En eso quedas tú
(Verso)
Sandy
Dinero no me queda ya
Sólo recuerdos 
F#m                E
Mas no los gasto porque tú

(Puente x2)
Sandy
Ya ni recuerdos tendrás
Ya ni recuerdos...

D
Y nace una idea
Que escapa que vuela
               A
Dejando una estela
Que se me va

D
Y miro al espejo
De nuevo tu lecho
         A
Lo veo ya

D
Tu madre que sale,
La puerta que cierra
             A
Y tu venga ya
Me llamas tú

D
Desde esa buhardilla
La calle es más corta
             A
Me esperas tú

E                   D
Decías eres un chiquillo
E                    D
Bajo tus sábanas de hilo
Me siento mal

(Puente x2)

(Verso x2)
Hay tres coches esperando
Para hacerle el amor a Sandy
Y mientras Sandy sin saber
                                 (Puente)
Que esta vez con ella yo no jugaré...
(Puente)                         (Puente)
Que esta vez con ella yo no jugaré...
(Puente)
Que esta vez con ella yo no jugaré...
Calificar esta versión:
Aviso: Este fichero es trabajo propio de su transcriptor y representa su interpretación personal de la canción. El material contenido en esta página es para exclusivo uso privado, por lo que se prohibe su reproducción o retransmisión, así como su uso para fines comerciales.