Land Of Confusion, Genesis (tablatura)

Autor: junior_12 | 41803 visualizaciones



bueno con este tema quiero ayudarlos porque fue el primero que me aprendi, :D





1:--------------------------------------
2:--------------------------------------
3:--------------------------------------
4:-------7------------------7-----------
5:---7-------7----------7-------7-------
6:-5---5---5---5----5-5---5---5---5-----


1:----------------------------------------
2:----------------------------------------
3:----------------------------------------
4:-------6------------------6-------------
5:---6--------6---------6-------6---------
6:-4---4----4---4---4-4---4---4---4-------



hasta ahi puedo ayudarlos





Calificar esta versión:
Aviso: Este fichero es trabajo propio de su transcriptor y representa su interpretación personal de la canción. El material contenido en esta página es para exclusivo uso privado, por lo que se prohibe su reproducción o retransmisión, así como su uso para fines comerciales.