Walking (solo), Gaza Strip (tablatura)

Autor: qtaslo | 36375 visualizaciones

e|--------------------------------------------------------------
b|--------------------------------------------------------------
g|--------------------------------------------9b11-7-6----------
d|--------------------------------6-7-9-7-6-7----------9-7-6-7b-a|-------4----------4-5-7-5-4-5-7-------------------------------
e|-2-4-5---5-2--4-5---------------------------------------------

e|--------------------------------------------------9-10-9------
b|-----------------------------------------------10-------------
g|--------------------------------------------11----------------
d|-------------------------------6-7-9-7------------------------
a|-------4---------4-5-7-5-4-5-7----------7b9-------------------e|-2-4-5---5-2-4-5----------------------------------------------

e|------------14p12---14p12---------17-16-17-19-17-16--19b21----
b|--10-9/12-14------14-----14-16-17-----------------------------
g|--------------------------------------------------------------
d|--------------------------------------------------------------
a|--------------------------------------------------------------
e|--------------------------------------------------------------

e|-19-17-16-17-19p17p16-----------------------------------------
b|--------------------------------------------------------------
g|-----------------------fin del solo---------------------------
d|--------------------------------------------------------------
a|--------------------------------------------------------------
e|--------------------------------------------------------------

Comentarios del colaborador: este es el solo de una muy buena banda como es gaza strip disfrutenla!!!

Calificar esta versión:
Aviso: Este fichero es trabajo propio de su transcriptor y representa su interpretación personal de la canción. El material contenido en esta página es para exclusivo uso privado, por lo que se prohibe su reproducción o retransmisión, así como su uso para fines comerciales.