Cantando Hasta El Amanecer, Gaytan Castro (tablatura)

Autor: Anónimo | 28982 visualizaciones



Bueno aca les envío mi primera transcripción.

Si tienen  cualquier duda o ayuda escribir a mi correo
[email protected]

Es una hermosa canción que me la enseñó mi padre, y a el se la dedico esta
transcripción

1.Este es un carnaval ayacuchano que esta en DO.

La canción comienza con el razgueo

      MI      LAm LAm LAm
e|----0--------0---0---0----
B|----0--------1---1---1----
G|----1--------2---2---2---- REPITE 10 VECES
D|----2--------2---2---2----
A|----2--------0---0---0----
E|----0--------0---0---0----


Este es el punteo inicial

e|-------------------------3/5--5--------------5----------------
B|------------------0-1----4/5--5--5-5--3--5---5---5------------
G|-------2~--1-2-1-2---------------5-5--4--5-------5------------
D|-2-2-2--------------------------------------------------------
A|--------------------------------------------------------------
E|--------------------------------------------------------------

Es la continuacion del punteo anterior
que tiene unParecido al razgueo anterior solo que se comienza con LAm

  LAm LAm LAm   MI
e|-0---0---0----0---
B|-1---1---1----0---
G|-2---2---2----1---    REPITE 3 VECES
D|-2---2---2----2---
A|-0---0---0----2---
E|-0---0---0----0---


Y se vuelve a repetir el punteo



Aqui es donde empieza a cantar


DO
Aqui ya venimos
FA
aqui ya llegamos
DO
linda Huamanguina

e|-----------------------------
B|-----------------------------
G|-----------------------------
D|---------------0-2-0---------
A|-----0-2-3-2-3-------3-2-3---
E|---3------------------------- Repite todo


DO
Bailando cantando
FA
Cantando bailando
DO
hasta el amanecer

      MI      LAm LAm LAm
e|----0--------0---0---0----
B|----0--------1---1---1----
G|----1--------2---2---2----
D|----2--------2---2---2----
A|----2--------0---0---0----
E|----0--------0---0---0----



DO
Ayacuchana
FA
Huamanguinita
DO
Entregame tu amor

e|-----------------------------
B|-----------------------------
G|-----------------------------
D|---------------0-2-0---------
A|-----0-2-3-2-3-------3-2-3---
E|---3-------------------------

DO
Perua amahua jaspa
FA
perua amahua jispa
DO
hasta el amanecer

      MI      LAm LAm LAm
e|----0--------0---0---0----
B|----0--------1---1---1----
G|----1--------2---2---2----
D|----2--------2---2---2----
A|----2--------0---0---0----
E|----0--------0---0---0----


Repite todo.

Luego de eso comienza en versión Huayno.

DO
Quisiera tener molino
FA
molino de cal y piedra
DO
urra y mirras runapa
MI           LAm
simillay chapchachinayay (BIs)





Calificar esta versión:
Aviso: Este fichero es trabajo propio de su transcriptor y representa su interpretación personal de la canción. El material contenido en esta página es para exclusivo uso privado, por lo que se prohibe su reproducción o retransmisión, así como su uso para fines comerciales.