I Think Im Paranoid, Garbage (tablatura)

Autor: ozmos_roses | 30160 visualizaciones

para mas informacion consultar mi email:edmundo_loko@hotmail.com
E----------------------------------------|
B-----12---14----------12-------------14-|
G-12----12------15--12------12---15------|
D-----------------15---------------------|
A----------------------------------------|
C----------------------------------------|

Chorus
E-------------------------5---6-----5---6---5---6-|
B---------------------4-----------4------4--------| AFTER 3RD TIME
G-----------88--8-5-------------------------------|
D-----------66--6-3-------------------------------| X3
A-55--5-3--3--------------------------------------|
C-77--7-5--5--------------------------------------|

Part After Chorus
E-0--0--0--00--00000--0--0--0--0---------0--0--0--00--00000--0--0--0--0------|
B-5--6--5--65--65656--5--6--5--6--55555555--6--5--65--65656--6--5--6--5--333-|
G----------------------------------------------------------------------------|
D----------------------------------------------------------------------------|
A----------------------------------------------------------------------------|
C----------------------------------------------------------------------------|

E---------------|
B-3333--3333333-|
G---------------|
D---------------|
A---------------|
C---------------|

Breakdown
E--------------------------|
B--------------------------|
G--------------------------|
D-------0-------0------0---|
A--------------------------|
C-4-------4--------4-----0-|

Final Chorus Lead (play after the usual chorus part)
E-----------3------------------|
B-------1------------3h4-4-4-3-|
G-0-3-0--------0-3-0-----------|
D------------------------------|
A------------------------------|
C------------------------------|
Calificar esta versión:
Aviso: Este fichero es trabajo propio de su transcriptor y representa su interpretación personal de la canción. El material contenido en esta página es para exclusivo uso privado, por lo que se prohibe su reproducción o retransmisión, así como su uso para fines comerciales.