Dame La Mano Y Danzaremos, Gabriela Mistral (tablatura)

Autor: Diegoner | 31927 visualizaciones



Bueno esta es una canción de un artista chilena llamada Gabriela Mistral

E-|-3-1-0--0-1--0-3--------------------------------------------
B-|-------3----3-----------------------------------------------
G-|------------------------------------------------------------
D-|------------------------------------------------------------
A-|------------------------------------------------------------
E-|------------------------------------------------------------

E-|-3-1-0--0-1-------------------------------------------------
B-|-------3----3-1----------------------------------------------
G-|------------------------------------------------------------
D-|------------------------------------------------------------
A-|------------------------------------------------------------
E-|------------------------------------------------------------

E-|-3-3-3-5-5-8-5-3-3-3-1-0---0-1------------------------------
B-|-------------------------3-----3-1--------------------------
G-|------------------------------------------------------------
D-|------------------------------------------------------------
A-|------------------------------------------------------------
E-|------------------------------------------------------------

E-|-3-1-0--0-1-------------------------------------------------
B-|-------3----3-1----------------------------------------------
G-|------------------------------------------------------------
D-|------------------------------------------------------------
A-|------------------------------------------------------------
E-|------------------------------------------------------------

La saque yo





Comentarios del colaborador: No lo copie de otro lugar lo saque yo que les pasa ¬¬

Calificar esta versión:
Aviso: Este fichero es trabajo propio de su transcriptor y representa su interpretación personal de la canción. El material contenido en esta página es para exclusivo uso privado, por lo que se prohibe su reproducción o retransmisión, así como su uso para fines comerciales.