Tan Lejos, Futuro Incierto (tablatura)

Autor: Kcor | 24548 visualizaciones

Sabes...

e|-------|
B|-------|
G|-------|
D|-4-----|   
A|-4-----|
E|-2-----|



Que estoy aqui . . .
e|--------------|
B|--------------|
G|-77-444-666---|
D|-77-444-666-44|   (x3)
A|-55-222-444-44|
E|------------22|



e|--------------------------------------------|
B|--------------------------------------------|
G|-77-444-666--------999-7-6---------999-7-6--|
D|-77-444-666-444-77-999-7-6--444-77-999-7-6--|
A|-55-222-444-444-77-777-5-4--444-77-777-5-4--|
E|------------222-55----------222-55----------|
           ...ver el final ...depende de mi . . .

e|---------------|
B|---------------|
G|----77-444-666-|
D|444-77-444-666-|   (x6)apartir de  la 3 repeticion con palmmute
A|444-55-222-444-|
E|222------------




. . . ver el final. . .
e|----------------------------------|
B|----------------------------------|
G|---------999-7-6---------999-7-6--|
D|--444-77-999-7-6--444-77-999-7-6--|
A|--444-77-777-5-4--444-77-777-5-4--|
E|--222-55----------222-55----------|





e|--------------------------------|
B|--------------------------------|
G|----------------------44444444--|
D|4444444444444-2222222-44444444--|   (x4)
A|4444444444444-2222222-22222222--|
E|2222222222222-0000000-----------|







e|-------------------|
B|-------------------|
G|-------------------|
D|--444-777----------|(x4)
A|--444-777----------|
E|--222-555-75457545-|




(solo de guitarra)
e|-----------------|
B|-----------------|
G|---------999-7-6-| (x6)
D|--444-77-999-7-6-|
A|--444-77-777-5-4-|
E|--222-55---------|



                oooohhhooohhohhhh
e|---------------------------------|
B|---------------------------------|
G|--------------777777777----------|
D|4444444444444-777777777-777777777|  
A|4444444444444-555555555-777777777|
E|2222222222222-----------555555555|


llegar tan lejos ohohohoh
e|---------------------------|
B|---------------------------|
G|--------------777777777----|
D|4444444444444-777777777-7-4|  
A|4444444444444-555555555-7-4|
E|2222222222222-----------5-2|
Calificar esta versión:
Aviso: Este fichero es trabajo propio de su transcriptor y representa su interpretación personal de la canción. El material contenido en esta página es para exclusivo uso privado, por lo que se prohibe su reproducción o retransmisión, así como su uso para fines comerciales.