Anabelle, Fun People (acordes)

Autor: Anónimo | 41702 visualizaciones

bb5c5d5g5


Introducción con guitarra acústica

1|--------------------------------------------------------------------
2|--------------------------------------------------------------------
3|----7---7-------7---7---7-----------3-------3-------3-------3-------
4|------7-----------7-------7-------3---3---3---3---3---3---3---3-----
5|--5-------5---5-------5------0--1-------1-------1-------1-------0---
6|--------------------------------------------------------------------



1|-----------------------------------------------------------------------
2|-----------------------------------------------------------------------
3|-----------------------------------------5-------5-------5-------5-----
4|------5-------5-------5-------5--------5---5---5---5---5---5---5---5---
5|----5---5---5---5---5---5---5-----0--3-------3-------3-------3---------
6|--3-------3-------3-------3--------------------------------------------



En estos arpegios suenan los acordes con distorción de una guitarra electrica

    D5                              Bb5
1|-----------------------------------------------------------------------
2|-----------------------------------------------------------------------
3|------7-------7-------7-------7-------3-------3-------3-------3--------
4|----7---7---7---7---7---7---7-------3---3---3---3---3---3---3---0------
5|--5-------5-------5-------5-----0-1-------1-------1-------1------------
6|-----------------------------------------------------------------------


    G5                                 C5
1|-----------------------------------------------------------------------
2|-----------------------------------------------------------------------
3|-----------------------------------------5-------5-------5-------5-----
4|------5-------5-------5-------5--------5---5---5---5---5---5---5---5---
5|----5---5---5---5---5---5---5-----0--3-------3-------3-------3---------
6|--3-------3-------3-------3--------------------------------------------


Parapapapaaaaa!!!!

Distorción y ritmo hardcore 
D5         Bb5      G5          C5         
Yo tenia una amiga y su nombre era Anabelle,
D5  Bb5  G5    C5 
Anabelle te sentias mal
D5Bb5   G5      C5          
Anabelle te hiciste analizar 
       D5         Bb5     G5     C5   
y una transfusión sanguinea arruinó tu vida
        D5  Bb5      G5  C5
tenias sida Anabelle, uoooouuooooh 
D5 Bb5     G5         C5
Anabelle cuidandome te amé hasta el 
D5 Bb5     G5         C5
final, cuidandome te amé hasta el 
D5   Bb5    G5         C5          D5           
final, cuidandome te amé hasta el final
Bb5              G5    C5
Ooohhh Uoohhh Por qué a vos? 
D5           Bb5         G5   C5   
Tus amigos te hicieron a un lado un lado,
D5       Bb5   G5        C5   
al enterarse el resultado resultado
D5              Bb5        G5      C5   
No no te fuiste así: Ni ta sola ni tan triste
D5           Bb5        G5            C5    
    porque estabas a mi lado y hasta el fin te amé
D5   Bb5     G5         C5            D5     Bb5  G5  C5
Anabelle cuidandome te amé hasta el final, 
D5   Bb5    G5     C5   D5
Anabelle Alwais in my mind!!!  Anabelle

Fin de la parte hardcore


1|-----------------------------------------
2|-----------------------------------------
3|------5-------5-------5-------5----------
4|----5---5---5---5---5---5---5---5--------
5|--3-------3-------3-------3-------3------
6|-----------------------------------------








Comentarios del colaborador: ACA HAY OTRO TEMA DE ESTA GRAN BANDA UN SALUDO A TODOS Y ESPERO Q LES SALGA UN BESO PAZ Y AMOR PARA TODOSSS

Calificar esta versión:
Aviso: Este fichero es trabajo propio de su transcriptor y representa su interpretación personal de la canción. El material contenido en esta página es para exclusivo uso privado, por lo que se prohibe su reproducción o retransmisión, así como su uso para fines comerciales.