Esta Noche, Franco Simone (tablatura)

Autor: Anónimo | 20548 visualizaciones



    F                             C                     G                     C     F-G
e--4/6--6--9--9--14--14--18--16-|-16--13---16--18--16-|-16--11---16--18--16-|-16--13---
B-------------------------------|---------------------|---------------------|----------
G-------------------------------|---------------------|---------------------|----------
D-------------------------------|---------------------|---------------------|----------
A-------------------------------|---------------------|---------------------|----------
E-------------------------------|---------------------|---------------------|----------

       C                G
En un cine no quiero pararme
      Am                   Em
este tiempo es de solo aburrirme
       F                 C                 G
un recuerdo vuelve a mi mente hablando de ti
      Dm                  Am
yo pensaba que fueran bastantes
      Em            Am
unos días para olvidarte
         F                 C            G
mas yo siento vivir en mi alma deseo de ti.
      C              G
Yo repito en cada momento
       Am                  Em
no se puede jugar con el tiempo
        F                   C                  G
sufrir por un recuerdo de amor que no es mas amor
        Dm                Am
fue muy fácil decir se acabó
      Em                 Am
como quieres devuelvo tu vida
        F                   C                      G
pero quiero esta noche yo quiero que tu sufras por mi.


C                   Em
Esta noche yo te estoy buscando
F                        C     C7
esta noche estoy enloqueciendo
F                           C            G
me pregunto que estarás creyendo o imaginando.
C                Em
Esta noche yo estoy corriendo
F                        C     C7
y tu sabes que estoy sufriendo
F                       C                    G
no soporto más mi pensamiento, te estoy esperando.


               C                     G                     C     F-G
e--4/6--8--6--4/6-------4/6--8--6-|-4/6-------4/6--8--6-|-4/6-------
B-----------------8---------------|-----6---------------|-----8-----
G---------------------------------|---------------------|-----------
D---------------------------------|---------------------|-----------
A---------------------------------|---------------------|-----------
E---------------------------------|---------------------|-----------

       C                    G
En mi boca yo siento el respiro
     Am                   Em
tu sabor dulce cuando me amabas
      F               C                  G
y mi lecho parece volverse un campo de trigo
     Dm                  Am
a tu lado encontraba mi tierra
        Em                    Am
mi horizonte, mi cielo, mi estrella
      F                 C              G
yo tomaba tu alma, tu cuerpo y todo de ti.


C                   Em
Esta noche yo te estoy buscando
F                        C     C7
esta noche estoy enloqueciendo
F                           C            G
me pregunto que estarás creyendo o imaginando.


                C      G#
e--16--18--16-|-16--13---
B-------------|----------
G-------------|----------
D-------------|----------
A-------------|----------
E-------------|----------

C#               Fm
Esta noche yo estoy corriendo
F#                       C#    C#7
y tu sabes que estoy sufriendo
F#                      C#                   G#
no soporto más mi pensamiento, te estoy esperando

             C#                            G#
e--6--8--6-|-------3--3--6--6--10/11--10-|-10--8--6----14--13--12--11--9--8--6-|
B----------|-4--4------------------------|-------------------------------------|
G----------|-----------------------------|-------------------------------------|
D----------|-----------------------------|-------------------------------------|
A----------|-----------------------------|-------------------------------------|
E----------|-----------------------------|-------------------------------------|

   F#                        C#        C#7
e|-4--4--8--11--11--16--15-|-15--13-11----
B|-------------------------|--------------
G|-------------------------|--------------
D|-------------------------|--------------
A|-------------------------|--------------
E|-------------------------|--------------

F#                      C#                   G#
no soporto más mi pensamiento, te estoy esperando


             C#
e--4--6--4-|-4----
B----------|----6-
G----------|------
D----------|------
A----------|------
E----------|------


              G#  C#
te estoy esperando.
-----------------
     e B G D A E
G# : 4 4 5 6 6 4
C# : 4 6 6 6 4 4
F# : 2 2 3 4 4 2
C#7: 4 6 4 6 4 4





Calificar esta versión:
Aviso: Este fichero es trabajo propio de su transcriptor y representa su interpretación personal de la canción. El material contenido en esta página es para exclusivo uso privado, por lo que se prohibe su reproducción o retransmisión, así como su uso para fines comerciales.