Summers End, Foo Fighters (acordes)

Autor: facu.p | 27681 visualizaciones

amcddsus2fg


 Intro/Riff 1
                           Let ring
e|---------------------------0-|
B|---------------------------3-|
G|---------------------------2-|   x2
D|--------------0--------0---0-|
A|--------0--3-----3--0--------|
E|-3--3------------------------|

Riff 2

e|-----------------------2-----|
B|-----------------------3-----|
G|-----------------------2-----|
D|--------------0--------0-----|
A|--------0--3-----3--0--------|
E|-3--3------------------------|



Verso

Dsus2
Early morning without warning, woke me with a scare
                   C       G
i had that dream aga-a-a-a-ain
Riff 1
that the sun was dead.
Dsus2
Make me warm or take me home, its so cold in here
                   C       G
cant we meet somewhe-e-e-e-re
Riff 1
is it winter there
Riff 1
is it winter there
Riff 2
this winter

Coro

D                Am
Meet me in the summer time
C                G
We can move the air
D                Am
Sweet Virginia countryside
C               G/Riff2
I will meet you then
D                Am
Blood red lips and cherry wine
C                G
Moonshine in your hair
D                Am
Just keep staring at the sun
C                G/Riff1
Pray for Summer's end

Verso 2

Dsus2
Come on over break my storm Oceans overhead
                  C        G
Come inside my frie-e-e-e-end
Riff 1
In the night out there
Dsus2
Every moment we have stolen All we had to share
                  C      G
No one wanted tha-a-a-a-t
Riff 1
but you know I did
Riff 1
you know I did
Riff 2
this moment

Coro x 1
Solo:

Dsus2 C G F D F D 
C G Riff 2

Coro x 1

Coro x 1 y termina en Dsus2


   Dsus2   C    G    Am    F    D
e|--0------0----3-----0----1----3--------------------------------------------|
B|--3------1----0-----1----1----2--------------------------------------------|
G|--2------0----0-----2----2----3--------------------------------------------|
D|--0------2----0-----2----3----0--------------------------------------------|
A|---------3----2-----0----3-------------------------------------------------|
E|--------------3----------1-------------------------------------------------| 





Comentarios del colaborador: bueno para los fanaticos de foo...aqui les dejo otra..

Calificar esta versión:
Aviso: Este fichero es trabajo propio de su transcriptor y representa su interpretación personal de la canción. El material contenido en esta página es para exclusivo uso privado, por lo que se prohibe su reproducción o retransmisión, así como su uso para fines comerciales.