Monkey Wrench, Foo Fighters (tablatura)

Autor: elpapu | 37767 visualizaciones



Foo Fighters - Monkey Wrench
(Drop D tuning)


Intro
(1st Version)
e||-----------------------------------------------------------------------||
B||--7-7-5-5-4-4-----5-5-4-4----------------------------------------------||
G||--------------6-6---------6-6-4-4-6-6-4-4-----4-4-6-6------------------||
D||------------------------------------------6-6----------4-4--6b1/2-6-4--||
A||-----------------------------------------------------------------------||
E||-----------------------------------------------------------------------||

(Acoustic Version)
e||---0--0-0-0-0-0-0-0-0-0-0-0-0-0-0-0-0-0-0-0-0-0-0-0-0-0-0-0-0-0-------0-0--||
B||---0--0-0-0-0-0-0-0-0-0-0-0-0-0-0-0-0-0-0-0-0-0-0-0-0-0-0-0-0-0-------0-0--||
G||--11-11-9-9-8-8-6-6-9-9-8-8-6-6-4-4/6-6-4-4-1-1-4-4-6-6-4-4-6-6(1/2b)-6-4--||
D||---------------------------------------------------------------------------||
A||---------------------------------------------------------------------------||
D||---------------------------------------------------------------------------||

This little riff is only played live. That's one of the best add-on
that Dave have done. That's really fast paced and played 2 times in
the song (after each Intro riff). For the intro on the AT&T Acoustic
show Dave is only playing the first part of the riff and ends it on
palm-mutes. Play that barre with your index always on the 7th fret
and use your ring finger to play the variations...
e||--7-7----7-7----7-7---|-7-7-10--7-10--7-9h10p9-7--||
B||--7-7-9--7-7-9--7-7-9-|-7-7-10--7-10--7-9h10p9-7--||
G||------9------9------9-|---------------------------||
D||----------------------|---------------------------||
A||----------------------|---------------------------||
D||----------------------|---------------------------||


Verse
        PM------------------------------------------------|
e||--------------------------------------------------------------------||
B||--------------------------------------------------------------------||
G||--4--4-4-4-4-4-4-4-4-4----------------------------------------------||
D||--4--4-4-4-4-4-4-4-4-4--4-4-4-4-2-2-2-2-2-2-2-2-2-2-2-2--0-2-0-2-0--||
A||--2--2-2-2-2-2-2-2-2-2--4-4-4-4-2-2-2-2-2-2-2-2-2-2-2-2--0-2-0-2-0--||
E||------------------------4-4-4-4-2-2-2-2-2-2-2-2-2-2-2-2--0-2-0-2-0--||
   "What have we done with innocence..."


Pre-Chorus
e||------------------------------||
B||------------------------------||
G||------------------------------||
D||--2--2-2-0--2--2-2-0-2-0-2-0--||
A||--2--2-2-0--2--2-2-0-2-0-2-0--||
E||--2--2-2-0--2--2-2-0-2-0-2-0--||
   "One in ten..."


Chorus
e||----------------------------------------||
B||----------------------------------------||
G||--4--4-4-4---------------------------5--||
D||--4--4-4-4--6--6-6--6-6-4-2---4-2-4--5--||
A||--2--2-2-2--6--6-6--6-6-4-2---4-2-4--3--||
E||------------6--6-6--6-6-4-2---4-2-4-----||
   "Don't want to be your monkey wrench"


Bridge
(Gtr. 1)
e||------------------------------------------------------------||
B||------------------------------------------------------------||
G||------9-----------------------------------------------------||
D||--6-6-9-9--5-5-5-5-5-5-5--4-2-2-2-2-2-2-2--4-2-2-2-2-2-2-2--||
A||--6-6-7-9--5-5-5-5-5-5-5--4-2-2-2-2-2-2-2--4-2-2-2-2-2-2-2--||
E||--6-6---9--5-5-5-5-5-5-5--4-2-2-2-2-2-2-2--4-2-2-2-2-2-2-2--||
   "Temper..."                                                 ||
                                                               ||
(Gtr. 2)                                                       ||
e||--------------------------0-0-0-0-0-0-0-0--0-0-0-0-0-0-0-0--||
B||--------------------------0-0-0-0-0-0-0-0--0-0-0-0-0-0-0-0--||
G||--------------------------1-1-1-1-1-1-1-1--1-1-1-1-1-1-1-1--||
D||------------------------------------------------------------||
A||------------------------------------------------------------||
E||------------------------------------------------------------||

(Gtr. 1)
e||-----------------------------------------------------------------||
B||-----------------------------------------------------------------||
G||--4-4-4-4-4-4-4-4-4-4--------------------------------------------||
D||--4-4-4-4-4-4-4-4-4-4-4-4-4-4-2-2-2-2-2-2-2-2-2-2-2-2-0-2-0-2-0--||
A||--2-2-2-2-2-2-2-2-2-2-4-4-4-4-2-2-2-2-2-2-2-2-2-2-2-2-0-2-0-2-0--||
E||----------------------4-4-4-4-2-2-2-2-2-2-2-2-2-2-2-2-0-2-0-2-0--||
"One last thing before I quit..."                                   ||
                                                                    ||
(Gtr. 2)                                                            ||
e||-----------------------------------------------------------------||
B||-----------------------------------------------------------------||
G||--4-4-4-4-4-4-4-4-4-4--------------------------------------------||
D||--x-x-x-x-x-x-x-x-x-x--------------------------------------------||
A||--2-2-2-2-2-2-2-2-2-2--------------------------------------------||
E||-----------------------------------------------------------------||





Comentarios del colaborador: regalada esta cancion muy facil aver si les sirve

Calificar esta versión:
Aviso: Este fichero es trabajo propio de su transcriptor y representa su interpretación personal de la canción. El material contenido en esta página es para exclusivo uso privado, por lo que se prohibe su reproducción o retransmisión, así como su uso para fines comerciales.