Let It Die, Foo Fighters (tablatura)

Autor: alvart | 20298 visualizaciones



Let It Die    Foo Fighters
Tabbed by: Barry Miles


Tuning: Standard


Intro/Verse: Acoustic Guitar

e|---8-------------|-------5----------|--8-------------|-------5--------|
B|-----6-----------|---3------3-------|----6-----------|---3------3-----|
G|-------0---0---0-|-----0------0-----|------0---0---0-|-----0------0---| x6
D|-8-----------7---|-5------------5/8-|------------7---|-5------------5/|
A|---------8-------|------------------|--------8-------|----------------|
E|-----------------|------------------|----------------|----------------|

Prechorus: Acoustic Guitar

e|---8-------------|-------------------|---------------------|-------------------|
B|-----6-----------|---8---------------|-11------------------|----8--------------|
G|-------0---0---0-|-----0---0----0----|----0----0----0----0-|----0-------0---0--|
D|-8-----------7---|-------9---10--/13-|------13--------12---|-10---10-12---9---8|
A|---------8-------|10-----------------|-----------13--------|---------14--------|
E|-----------------|-------------------|---------------------|-------------------|

e|-----------------|-------------------|---------------------|-------------------|
B|-6---------------|---8---------------|-11------------------|----8--------------|
G|---0---0---0---0-|-----0---0----0----|----0----0----0----0-|----0-------0---0--|
D|-8---8-------7---|-------9---10--/13-|------13--------12---|-10---10-12---9---8|
A|---------8-------|10-----------------|-----------13--------|---------14--------|
E|-----------------|-------------------|---------------------|-------------------|

Verse
Prechorus

Bridge: Overdriven Guitar

          P.M.----------|   |------------------------------------------------------|
e|-------|-----------------|-----------------|-----------------|-------------------|
B|-------|-----------------|-----------------|-----------------|-------------------|
G|-------|-----------------|-----------------|-----------------|-------------------|
D|-5-5-5-|---------------5-|-----------------|-----------------|-----------5-5-5---|
A|-5-5-5-|-5-5-5-5-5-5-5-5-|-5-5-5-5-5-5-5-5-|-5-5-5-5-5-5-5-5-|-5-5-5-5-5-5-5-5---|
E|-3-3-3-|-3-3-3-3-3-3-3-3-|-3-3-3-3-3-3-3-3-|-3-3-3-3-3-3-3-3-|-3-3-3-3-3-3-3-3---|

 P.M.-----------------------------|   |----------------------------------|
e|-----------------|-----------------|-----------------|-----------------|
B|-----------------|-----------------|-----------------|-----------------|
G|-----------------|-----------------|-----------------|-----------------|
D|-----------------|---------------5-|-----------------|-----------------|
A|-5-5-5-5-5-5-5-5-|-5-5-5-5-5-5-5-5-|-5-5-5-5-5-5-5-5-|-5-5-5-5-5-5-5---|
E|-3-3-3-3-3-3-3-3-|-3-3-3-3-3-3-3-3-|-3-3-3-3-3-3-3-3-|-3-3-3-3-3-3-3---|

Chorus 1: Acoustic Guitar

e|---------6-------|-------8---------|---------3-------|-------5---------|
B|---4-------4-----|---6-------6-----|---1-------1-----|---3-------3-----|
G|-----0-------0---|-----0-------0---|-----0-------0---|-----0-------0---|
D|-------5-------5-|---------------7-|-------2-------2-|---------------4-|
A|-6---------------|-8---------------|-3---------------|-5---------------|
E|-----------------|-----------------|-----------------|-----------------|

(Play 3 & 1/2 times)

Bridge 2: Acoustic for first bar, then overdriven afterwards)

e|---8-------------|-----------------|-----------------|-----------------|
B|-----6-----------|-----------------|-----------------|-----------------|
G|-------0---0---0-|-0-0-0-0---0---0-|--0--0--0-0---0--|--0--0--0--0--0-0|
D|-8-----------7---|-5-5-5-9--10--13-|-13-13-13-8--12--|-10-10-10-12--8-8|
A|---------8-------|-----------------|-----------------|-----------------|
E|-----------------|-----------------|-----------------|-----------------|
 |                 |                 |                 |                 |
e|---8-------------|-----------------|-----------------|-----------------|
B|-----6-----------|-----------------|-----------------|-----------------|
G|-------0---0---0-|-----------------|-----------------|-----------------|
D|-8-----------7---|-5-5-5-5-5-5-5-5-|-5-5-5-5-5-5-5-5-|-5-5-5-5-5-5-5-5-|
A|---------8-------|-5-5-5-5-5-5-5-5-|-5-5-5-5-5-5-5-5-|-5-5-5-5-5-5-5-5-|
E|-----------------|-3-3-3-3-3-3-3-3-|-3-3-3-3-3-3-3-3-|-3-3-3-3-3-3-3-3-|

e|-----------------|-----------------|-----------------|-----------------|
B|-----------------|-----------------|-----------------|-----------------|
G|---0-0-0-0---0---|-0-0-0-0---0---0-|--0--0--0-0---0--|--0--0--0--0--0-0|
D|---8-8-8-3---7---|-5-5-5-9--10--13-|-13-13-13-8--12--|-10-10-10-12--8-8|
A|-----------------|-----------------|-----------------|-----------------|
E|-----------------|-----------------|-----------------|-----------------|  x3
 |                 |                 |                 |                 |
e|-----------------|-----------------|-----------------|-----------------|
B|-----------------|-----------------|-----------------|-----------------|
G|-----------------|-----------------|-----------------|-----------------|
D|-5-5-5-5-5-5-5-5-|-5-5-5-5-5-5-5-5-|-5-5-5-5-5-5-5-5-|-5-5-5-5-5-5-5-5-|
A|-5-5-5-5-5-5-5-5-|-5-5-5-5-5-5-5-5-|-5-5-5-5-5-5-5-5-|-5-5-5-5-5-5-5-5-|
E|-3-3-3-3-3-3-3-3-|-3-3-3-3-3-3-3-3-|-3-3-3-3-3-3-3-3-|-3-3-3-3-3-3-3-3-|

Chorus 2: Overdriven

e|-----------------|-----------------------|-----------------|-----------------|
B|-----------------|-----------------------|-----------------|-----------------|
G|-8-8-8-8-8-8-8-8-|10-10-10-10-10-10-10-10|-5-5-5-5-5-5-5-5-|-7-7-7-7-7-7-7-7-|
D|-8-8-8-8-8-8-8-8-|10-10-10-10-10-10-10-10|-5-5-5-5-5-5-5-5-|-7-7-7-7-7-7-7-7-|
A|-6-6-6-6-6-6-6-6-|-8--8--8--8--8--8--8--8|-3-3-3-3-3-3-3-3-|-5-5-5-5-5-5-5-5-|
E|-6-6-6-6-6-6-6-6-|-8--8--8--8--8--8--8--8|-3-3-3-3-3-3-3-3-|-5-5-5-5-5-5-5-5-|

(Repeat 3 & 1/2 times, third time another guitar slides in)

Outro: Overdriven
e|-----------------|-----------------|-----------------|-----------------|
B|-----------------|-----------------|-----------------|-----------------|
G|-0-0-0-0-0---0---|-0-0-0-0---0---0-|--0--0--0-0---0--|--0--0--0--0--0-0|
D|-8-8-8-8-3---7---|-5-5-5-9--10--13-|-13-13-13-8--12--|-10-10-10-12--8-8|
A|-----------------|-----------------|-----------------|-----------------|
E|-----------------|-----------------|-----------------|-----------------|  x3
 |                 |                 |                 |                 |
e|-----------------|-----------------|-----------------|-----------------|
B|-----------------|-----------------|-----------------|-----------------|
G|-----------------|-----------------|-----------------|-----------------|
D|-5-5-5-5-5-5-5-5-|-5-5-5-5-5-5-5-5-|-5-5-5-5-5-5-5-5-|-5-5-5-5-5-5-5-5-|
A|-5-5-5-5-5-5-5-5-|-5-5-5-5-5-5-5-5-|-5-5-5-5-5-5-5-5-|-5-5-5-5-5-5-5-5-|
E|-3-3-3-3-3-3-3-3-|-3-3-3-3-3-3-3-3-|-3-3-3-3-3-3-3-3-|-3-3-3-3-3-3-3-3-|

e|-----------------|
B|-----------------|
G|---0-0-0-0---0---|
D|---8-8-8-3---7---|
A|-----------------|
E|-----------------|
 |                 |
e|-----------------|
B|-----------------|
G|-----------------|
D|-5-5-5-5-5-5-5-5-|
A|-5-5-5-5-5-5-5-5-|
E|-3-3-3-3-3-3-3-3-|





Calificar esta versión:
Aviso: Este fichero es trabajo propio de su transcriptor y representa su interpretación personal de la canción. El material contenido en esta página es para exclusivo uso privado, por lo que se prohibe su reproducción o retransmisión, así como su uso para fines comerciales.