Quiero Ser Tu Sombra, Folklore (tablatura)

Autor: lukita51 | 34687 visualizaciones



e|-------------8---8---8-----8?10--8--7--6--7----------------|
B|-----------------------------------------------------------|
G|-9-10-9-8-9----9---9---9-----------------------------------|
D|-----------------------------------------------------------|
A|-----------------------------------------------------------|
E|-----------------------------------------------------------|

e|-------------7---7---7----7?8-7?---5-4-5-------------------|
B|-----------------------------------------------------------|
G|-9-10-9-8-9----9---9---9-----------------------------------|
D|-----------------------------------------------------------|
A|-----------------------------------------------------------|
E|-----------------------------------------------------------|

e|-----------------------------------------------------------|
B|--------------8s10--10--10--9--8---8--8--7--6--------------|
G|-9-10-9-8-9------------------------------------------------|
D|-----------------------------------------------------------|
A|-----------------------------------------------------------|
E|-----------------------------------------------------------|

e|--1--0-----------------------------0--1--0-------------------5|
B|--------3--1--0-----------0--1--3-----------3--1--0-----1s5---|
G|-----------------2--1--2-----------------------------2--------|
D|--------------------------------------------------------------|
A|--------------------------------------------------------------|
E|--------------------------------------------------------------|

e|--5s12---12--12--12-------------------------------------------|
B|--------------------------------------------------------------|
G|--------------------------------------------------------------|
D|--------------------------------------------------------------|
A|--------------------------------------------------------------|
E|--------------------------------------------------------------|

e|-12-10-0--12-10-0--12-10-0--12-10-0--10-8-0--10-8-0--10-8-0---10-8-0----------------------------------------------------------|
B|--------------------------------------------------------------|
G|--------------------------------------------------------------|
D|--------------------------------------------------------------|
A|--------------------------------------------------------------|
E|--------------------------------------------------------------|

e|-8-7-0--8-7-0--8-7-0--8-7-0--7-5-0--7-5-0--7-5-0--7-5-0-------|
B|--------------------------------------------------------------|
G|--------------------------------------------------------------|
D|--------------------------------------------------------------|
A|--------------------------------------------------------------|
E|--------------------------------------------------------------|

e|-5-3-0--5-3-0--5-3-0--5-3-0----3--2?1-------------------------|
B|--------------------------------------------------------------|
G|--------------------------------------------------------------|
D|--------------------------------------------------------------|
A|--------------------------------------------------------------|
E|--------------------------------------------------------------|

e|--1--0-----------------------------0--1--0-------------------5|
B|--------3--1--0-----------0--1--3-----------3--1--0-----1s5---|
G|-----------------2--1--2-----------------------------2--------|
D|--------------------------------------------------------------|
A|--------------------------------------------------------------|
E|--------------------------------------------------------------|





Comentarios del colaborador: Si me confundi en algo perdon, espero que les sirva :)

Calificar esta versión:
Aviso: Este fichero es trabajo propio de su transcriptor y representa su interpretación personal de la canción. El material contenido en esta página es para exclusivo uso privado, por lo que se prohibe su reproducción o retransmisión, así como su uso para fines comerciales.