Revolución Sin Manos, Fobia (tablatura)

Autor: Anónimo | 40819 visualizaciones



Revolucion sin manos
Intro: 

--| |---------E--------Esus4----------E-----| |

		    (tocar 4 veces)
E||-------||------------------------------||
B||--x-x--||----------10-10-10-10-9-9-----||
G||--x-x--||o--9--9-x-9--9--9--9--9-9---o-||
D||--x-x--||o--9--9-x-9--9--9--9--9-9---o-||
A||--x-x--||---7--7-x---------------------||
E||-------||------------------------------||
 

-||-C5----------------A5-------------||
	   (tocar 4 veces)
E|-----------------|-----------------|
B|-----------------|-----------------|
G|--6--6--6--6--6--|-----------------|
D|--6--6--6--6--6--|--7--7--7--7--7--|
A|--4--4--4--4--4--|--7--7--7--7--7--|
E|-----------------|--5--5--5--5--5--|
Verso: 

 

--| |---------E--------Esus4----------E---| |

		    (tocar 4 veces)
E||-------||-----------------------------||
B||--x-x--||----------10-10-10-10-9-9----||
G||--x-x--||o--9--9-x-9--9--9--9--9-9--o-||
D||--x-x--||o--9--9-x-9--9--9--9--9-9--o-||
A||--x-x--||---7--7-x--------------------||
E||-------||-----------------------------||
-||-C5----------------A5-------------||
	   (tocar 4 veces)
E|-----------------|-----------------|
B|-----------------|-----------------|
G|--6--6--6--6--6--|-----------------|
D|--6--6--6--6--6--|--7--7--7--7--7--|
A|--4--4--4--4--4--|--7--7--7--7--7--|
E|-----------------|--5--5--5--5--5--|
 

--| |---------E--------Esus4----------E----| |

		    (tocar 4 veces)
E||-------||----------------------10-10--||
B||--x-x--||----------10-10-10-10-10-10--||
G||--x-x--||o--9--9-x-9--9--9--9--9--9--o||
D||--x-x--||o--9--9-x-9--9--9--9-------o-||
A||--x-x--||---7--7-x--------------------||
E||-------||-----------------------------||
El riff del verso tiene variaciones.

Coro: 

------E5-------A5-----A5--D5--- ---C#5------A5----(Toca 3 veces)
G||---9--9--9-------|-----7-7-||---6--6--6--------||
D||o--9--9--9--7-7--|-7-7-7-7o||o--6--6--6--7-7--o||
A||o--7--7--7--7-7--|-7-7-5-5o||o--4--4--4--7-7--o||
E||------------5-5--|-5-5-----||------------5-5---||

G||--9--9--7-9-7-9--9--7-9-7--|--9--9--7-9-7--9----|
D||--9--9--7-9-7-9--9--7-9-7--|--9--9--7-9-7--9----|
A||--7--7--7-7-7-7--7--7-7-7--|--7--7--7-7-7--7----|
E||---------------------------|--------------------|
Lick
E||-----------------------------7-9/10--||
B||------------7--9/10------------------||
G||o--6---7/9------------6--7/9--------o||
D||o-----------------------------------o||
A||-------------------------------------||
 

Otra vez el coro.

	   (toca 16 veces)
B||-----------------8-9---||
G||-----9--7--9--7--------||
D||o---------------------o||
A||o-(7)-----------------o||
E||---0-------------------||
El interludio tambien tiene variaciones solo escuchalo.
EL riff del verso 2 veces y luego esto
G||--9--9--7-9-7-9--9--7-9-7--|--9--9--7-9-7-9--9--7-9-7--|
D||--9--9--7-9-7-9--9--7-9-7--|--9--9--7-9-7-9--9--7-9-7--|
A||--7--7--7-7-7-7--7--7-7-7--|--7--7--7-7-7-7--7--7-7-7--|
E||---------------------------|---------------------------|
 

G|--9--9--7-9-7--9----|
D|--9--9--7-9-7--9----|
A|--7--7--7-7-7--7----|
E|--------------------|

Visita la página de FOBIA (members.xoom.com/geras_/diablos.htm)





Calificar esta versión:
Aviso: Este fichero es trabajo propio de su transcriptor y representa su interpretación personal de la canción. El material contenido en esta página es para exclusivo uso privado, por lo que se prohibe su reproducción o retransmisión, así como su uso para fines comerciales.