Desde Que No Estas, Flema (tablatura)

Autor: Anónimo | 43110 visualizaciones



Desde que no estas


 A     E/F#     D
------------------
------------------
------9--9/11---7-
-7--7-9--9/11---7-
-7--7-7--7/9----5-
-5--5-------------

Toda la canción igual

A E D

Mirando el pasado en el viento
fumo un cigarrillo en soledad
floto por las calles, voy sin rumbo
tome un valium para olvidar.


             A   E   D
Siempre es asi...

Desde que no estas
---------------
---------------
-----55-4-2/4--
-44--55-4------
-44--33-2------
-22------------


Blanco es color del infierno
la fiebre me puede hacer temblar
triste y cruel es mi agonia
estoy muerto en vida un dia mas.

Siempre es asi...

Desde que no estas
---------------         -----------------
---------------         -----------------
-----55-4-2/4-- varias  ----55-44--77-99-
-44--55-4------ veces y -44-55-44--77-99-
-44--33-2------ despues -44-33-22--55-77-
-22------------         -22--------------

Siempre es asi, asi, asiiiiii

Oske & Dela (pocholita)

Fuente original: LaCuerda
Colaborador original: Oske [[email protected]]





Calificar esta versión:
Aviso: Este fichero es trabajo propio de su transcriptor y representa su interpretación personal de la canción. El material contenido en esta página es para exclusivo uso privado, por lo que se prohibe su reproducción o retransmisión, así como su uso para fines comerciales.