Tiger Mountain Peasant Song, Fleet Foxes (acordes)

Autor: GabrieldCV | 45740 visualizaciones

aamcd7doemfglammimsim


La canción esta un tono mas bajo [:
-Introducción [X2]
     Am
eb|-----------------------|-----------------------|
Bb|--1----1-----0h1---1---|--1----1-----0h1---1---|
Gb|--2----2-----2-----2---|--2----2-----2-----2---|
Db|--2--2---2-------2---2-|--2--2---2-------2---2-|
Ab|--0--------------------|--0--------------------|
Eb|-----------------------|-----------------------|
    Am         D7           G          Em
eb|-----------------------|----------------------|
Bb|--1----1-----1-----1---|--0----0-----0----0---|
Gb|--2----2-----2-----2---|--0----0-----0----0---|
Db|--2--2---2-------0---0-|--0--0---0---2--2---2-|
Ab|--0--------------------|----------------------|
Eb|-------------2---------|--3----------0--------|

Y Robin Pecknold canta:

Wanderers    this      morning came by       
     Am         D7           G          Em
eb|-----------------------|----------------------|
Bb|--1----1-----1-----1---|--0----0-----0----0---|
Gb|--2----2-----2-----2---|--0----0-----0----0---|
Db|--2--2---2-------0---0-|--0--0---0---2--2---2-|
Ab|--0--------------------|----------------------|
Eb|-------------2---------|--3----------0--------|

     Where did they go     Graceful in the morning
     Am         D7           G          F      G
eb|-----------------------|----------------------|
Bb|--1----1-----1-----1---|--0----0-----1----1-0-|
Gb|--2----2-----2-----2---|--0----0-----2----2-0-|
Db|--2--2---2-------0---0-|--0--0---0---3--3-----|
Ab|--0--------------------|-------------0--------|
Eb|-------------2---------|--3-----------------3-|

    light      to banner     fair   to follow you
     C          F       G    C          F       
eb|-----------------------||-----------------------|
Bb|--1----0-----1----1--0-||--1----0-----1----1----|
Gb|--0----0-----2----2--0-||--0----0-----2----2----|
Db|-----2---2---3--3------||-----2---2---3--3---3--|
Ab|--3----------0---------||--3----------0---------|
Eb|---------------------3-||-----------------------|

    softly in the cold mountain air
     G
eb|----------------------||----------------------|
Bb|--0---0----0---0------||--0---0----0---0------|
Gb|--0---0----0---0------||--0---0----0---0------|
Db|--0-0---0--0-0---0----||--0-0---0--0-0---0----|
Ab|----------------------||----------------------|
Eb|--3--------3----------||--3--------3----------|

Acá es un arpegio sencillo:
eb|--------|
Bb|--0-0---|
Gb|--0-0---| Cada uno con su respectivo bajo
Db|--0-0---| D7 y G con el arpegio anterior
Ab|--0-0---|
Eb|--------|

C    F      G       C
Dear shadow alive and well
C           F    G
How can the body die
    C       D7
You tell me everything
         G
Anything true.

Última parte: Rasgueando

Em   A 
Jesse
G                 Am     C
I don't know what I have done
    F       C           F   C
I'm turning myself to a demon
G                 Am     C
I don't know what I have done
    F                   C
I'm turning myself to a demon

Final:
Como el primer arpegio:
Lam - Sim - Do - Sim - Lam - Mim - Lam [X3]
Repetir hasta el final PD: El Do del final es:
eb|-4---|
Bb|-6---|
Gb|-6---|
Db|-6---|
Ab|-4---|
eb|-4---|

Eso es todo ESPERO LES AYUDE





Calificar esta versión:
Aviso: Este fichero es trabajo propio de su transcriptor y representa su interpretación personal de la canción. El material contenido en esta página es para exclusivo uso privado, por lo que se prohibe su reproducción o retransmisión, así como su uso para fines comerciales.