Mykonos, Fleet Foxes (tablatura)

Autor: GabrieldCV | 16120 visualizaciones



Bueno acá mi primera tablatura:
Capo 2 traste
Introducción (X2)

E|------------------------------------------|
B|--3----2----0---------0----3----2----2----|
G|----4----2----0--2------0----4----2----2--|
D|--4----2----0------4--0----4----2----4----|
A|-----------------4------------------------|
E|------------------------------------------|

Parte de coro
e|------------------------------------------|......
B|--3----3----2----2----0----0--------------|......
G|----4----4----2----2----0----0--2----2----|......
D|--4----4----2----2----0----0------4----4--|......
A|--------------------------------4----4----|......
E|------------------------------------------|......

 ......|----------------------------------------- |
 ......|--0----0--------------3----3----3----3--- |
 ......|----0----0--2----2------4----4----4----4- |
 ......|--0----0------4----4--4----4----4----4--- |
 ......|------------4----4----------------------- |
 ......|----------------------------------------- |
 Acaban los coros y canta Robin Pecknold, la guitarra toca:
     Bm        A         G         F#          Em  
e|---------|---------|---------|---------||---------|
B|-3-----3-|-2-----2-|-0-----0-|-2-----2-||-0-----0-|
G|-----4---|-----2---|-----0---|-----2---||-----0---|
D|---4-----|---2-----|---0-----|---4-----||---2-----|
A|-2-------|-0-------|---------|---------||---------|
E|---------|---------|-3-------|-2-------||-0-------|
 
Cada acorde respectivamente así:

Bm              A        G         A        F#m
The door slammed loud and rose up a cloud of dust
   G
on up.
Bm        A      G           A      F#m
Footsteps follow down to the hollow sound
     G
Torn up

    Em                     Bm
And you would go to Mykonos
       Em                          Bm
With a vision of the channel coast
      Em                    Bm
And a sun to maybe dissipate
        F#m               G   A
Shadows of the mess you made

-Se repite lo de el coro
-Después canta sin instrumentos

Brother you don't need to turn me away
I was waiting down at the ancient gates 

- Después rasgando ¡Con sentimiento!
Acordes:
Em  : 022000
A   : 002220
G/A : 302xxx
F#/A: 202xxx

Em  
 You go
A                      G/A  F#/A  
Wherever you go today
Em     A
You go today


Em                 A    A   G
 I remember how it took you down
Em                        A  A   G
 As the winter turned the meadow around


Em
 You go
A                      G/A  F#/A
Wherever you go today
Em      A
 You go today


Em                      A     A   G
 When I walking brother don't you forget
Em                      A    A     G  
 It ain't often you'll ever find a friend


Em
 You go
A                     G/A  F#/A
Wherever you go today
Em      A
 You go today
 
Repetir esto hasta el final:

Em                    
 You go                
A                      
Wherever you go today 
Em      A             
 You go today





Calificar esta versión:
Aviso: Este fichero es trabajo propio de su transcriptor y representa su interpretación personal de la canción. El material contenido en esta página es para exclusivo uso privado, por lo que se prohibe su reproducción o retransmisión, así como su uso para fines comerciales.