No Controles, Flans (tablatura)

Autor: Gala95 | 37011 visualizaciones



Intro:

E -----0--1--0-----0--3-----0/1/0-----------
B --2-----------0--------1------------------
G ------------------------------------------
D ------------------------------------------
A ------------------------------------------
E ------------------------------------------


E ------------------------------------------
B --1--1--2--3------------------------------
G --------------2--0------------------------
D ------------------------------------------
A ------------------------------------------
E ------------------------------------------





Comentarios del colaborador: Este es el intro en punteo, no es del todo acertado pero es lo mas cerca que pude hacer...

Calificar esta versión:
Aviso: Este fichero es trabajo propio de su transcriptor y representa su interpretación personal de la canción. El material contenido en esta página es para exclusivo uso privado, por lo que se prohibe su reproducción o retransmisión, así como su uso para fines comerciales.