Barra Americana, Fito & Fitipaldis (bajo)

Autor: Anónimo | 20861 visualizaciones

Dedicado a mi mejor amigo Angel

Intro
G------2---------------0-------2-0-------2---------------0--------2
D--0-3---3-----2-----2---2-0-3----32-0-3---3-----2-----2---2-0-03--
A----------0-4---4-0-------------------------0-4---4-0-------------
E------------------------------------------------------------------

G------2-23-------------------2-0-------2---------------0-------2--
D--0-3------3-2-0-----2---0-3----32-0-3---3-----2-----2---2-0-3---3
A-----------------0-4---4-------------------0-4---4-0--------------
E------------------------------------------------------------------

Barra Americana...

G------2---------------0-------2--------2---------------0-------2--
D--0-3---3-----2-----2---2-0-3---3--0-3---3-----2-----2---2-0-3---3
A----------0-4---4-0------------------------0-4---4-0--------------
E------------------------------------------------------------------

Ven hacia a mi...                               Esta noche puedes..
G------------------------------------------------------------------
D---------0-2-3-2--------0-2-3-2-------0-2-3-2---------------------
A--3-3-03---------3-3-03----------3-03----------1----------3-------
E------------------------------------------------------------------


G------2---------------0-------2--------2---------------0-------2--
D--0-3---3-----2-----2---2-0-3---3--0-3---3-----2-----2---2-0-3---3
A----------0-4---4-0------------------------0-4---4-0--------------
E------------------------------------------------------------------

Aquí la tentación...
G------2---------------0-------2--------2---------------0-------2--
D--0-3---3-----2-----2---2-0-3---3--0-3---3-----2-----2---2-0-3---3
A----------0-4---4-0------------------------0-4---4-0--------------
E------------------------------------------------------------------

Ven hacia a mi...                               Esta noche puedes..
G------------------------------------------------------------------
D---------0-2-3-2--------0-2-3-2-------0-2-3-2---------------------
A--3-3-03---------3-3-03----------3-03----------1----------3-------
E------------------------------------------------------------------

('Solo' trompeta)
G------2---------------0-------2-0-------2---------------0-------2-
D--0-3---3-----2-----2---2-0-3----32-0-3---3-----2-----2---2-0-3--3
A----------0-4---4-0-------------------------0-4---4-0-------------
E------------------------------------------------------------------

G--------------------7-------7--|     --------------------
D-------------------7-7-----7-7-| x2  -------------------0
A----------------5-5---5-5-5---5|     --------------------
E--1-1-1-1-0---0----------------|     --1-1-1-1-0----0----

Ven hacia a mi...                               Esta noche puedes..
G------------------------------------------------------------------
D---------0-2-3-2--------0-2-3-2-------0-2-3-2---------------------
A--3-3-03---------3-3-03----------3-03----------1----------3-------
E------------------------------------------------------------------

(Parte final)
G-----2--------2--------2--------2--------2--------2---------------
D-0-3---3-0-03------0-3---3-0-03------0-3---3-0-03------0----0----0
A---------------0-3---------------0-3----------------0-3--0-3--0-3-
E------------------------------------------------------------------


Saludos a toda la peña de Villagarcia de Arosa.
y a la gente que me conoce.
Nos vemos el 18 de noviembre en A Coruña en el concierto de Fito.
Calificar esta versión:
Aviso: Este fichero es trabajo propio de su transcriptor y representa su interpretación personal de la canción. El material contenido en esta página es para exclusivo uso privado, por lo que se prohibe su reproducción o retransmisión, así como su uso para fines comerciales.