Eterno Viajero, Extremoduro (tablatura)

Autor: Anónimo | 18397 visualizaciones



Nota: los acordes son todos quintas y están indicados al final de la tablatura

Intro: E D G A B D C B E (x2)

Soy eterno viajero de sueños e ilusiones, soy eterno viajero de amores
                                            C*   G*   F#*  X
e||------------|--------------|---------------------------------|
B||------------|--10----------|-10/12-10----13---15---14---16---|
G||-12-11-9----|-----12-11----|----------12---------------------|
D||---------9--|-----------9--|---------------------------------|
A||------------|--------------|---------------------------------|
E||------------|--------------|---------------------------------|
  |riff 1(x4)  |riff 2(x4)    |riff 3                           |

e|--------|------------|--------|-------------|--------|--------|
B|--------|---------12-|--------|-10-------12-|--------|--------|
G|-riff 1-|-12-11-9----|-riff 1-|----12-11----|-riff 2-|-riff 3-|
D|--------|------------|--------|-------------|--------|--------|
A|--------|------------|--------|-------------|--------|--------|
E|--------|-riff 4.a---|--------|-------------|--------|--------|
 |riff 4                        |riff 5(x2)            |

  E...en LA segunda repetición:  E D G A B D C B   e (los acordes de la intro)
e|----------------------------------------------|---------|----------|--------|
B|----------------10----10-12-12-10-------------|---------|----------|--------|
G|--9-11-12-11-12----12-------------12-12-11-9--|--9~~~~--|-riff 4.a-|-riff 1-|
D|----------------------------------------------|---------|----------|--------|
A|----------------------------------------------|---------|----------|--------|
E|--------------------(x2)----------------------|---------|----------|--------|
 |riff 6                                                  |riff 7(x2)         |

e|------------|--------|--------|------------|--------|--------|
B|------------|--------|--------|------------|--------|--------|
G|-riff 5(x2)-|-riff 3-|-riff 4-|-riff 5(x2)-|-riff 3-|-riff 6-|
D|------------|--------|--------|------------|--------|--------|
A|------------|--------|--------|------------|--------|----(*)-|
E|------------|--------|--------|------------|--------|--------|

e|----------------------------...| 





Calificar esta versión:
Aviso: Este fichero es trabajo propio de su transcriptor y representa su interpretación personal de la canción. El material contenido en esta página es para exclusivo uso privado, por lo que se prohibe su reproducción o retransmisión, así como su uso para fines comerciales.