Deltoya Completada, Extremoduro (tablatura)

Autor: Anónimo | 44276 visualizaciones



Empieza así en la gira 2008 lo toca cuatro veces se produce un
Silencio y comienza a cantar.

e |----------------------------------------------------------|
B |-------------------------------------0-0-0----------------|
G |--------0-0-0----------2-2-2---------2-2-2---------2-2-2--|
D |-2-2-2--2-2-2--2-2-2---3-3-3--2-2-2---------2-2-2--3-3-3--|
A |-0-0-0---------3-3-3----------0-0-0---------3-3-3---------|
E |----------------------------------------------------------|
      Se apago el fogón          no funciona nadaaaaa

   La segunda guitarra hace esto pero con wah y distorsión
     ovov   vov  ovovo   ovov     vovo   vov   vovo    ovovo
e |----------------------------------------------------------|
B |-------------------------------------0-0-0----------------|
G |--------0-0-0----------2-2-2---------0-0-0---------2-2-2--|
D |-2-2-2--2-2-2--2-2-2---3-3-3--2-2-2---------2-2-2--3-3-3--|
A |-0-0-0---------3-3-3----------0-0-0---------3-3-3---------|
E |----------------------------------------------------------|
      o  cierra wah       v habre wah

LA5                               FA5
Me cuelgo de su pelo, me engancho de su miel,
LA5                              FA5
me encuentro con mi hada, que esta loca también,
SOL5                              MI5
he vuelto a la andadas, he vuelto a enloquecer
SOL5                              MI5
lo vi escrito en la luna, luna creciente

la 1parte que se tocara en las 2 primeras lineas siguientes

        1ºp                     2ºp
|---------------------|----------------------|
|---------------------|----------------------|
|---------------------|----------------------|
|--7-----7-----7--3-3-|--7-----7-----7--3-3--|
|--7-----7-----7--3-3-|--7-----7-----7--3-3--|
|--5-5-5-5-5-5-5--1-1-|--5-5-5-5-5-5-5--1-1--|
    p.m   p.m            p.m   p.m


1ºparte
Es menester
1ºparte
en la cañada

DO5          SOL5
dejar el arroyo
 FA5
con sus ruidos:

1ºparte
y yo me quedo en casa,
LA5
me duele todo,
DO5             SOL5                          FA5
quién va a aguantarme con este mono.

Lo siguiente es igual a lo anterior.

Fotos de un cajón rompen mi cabeza
recuerdo su olor y se me pone tiesa:
Me cuelgo de su pelo, me engancho de su miel,
me encuentro con mi hada, que esta loca también,
he vuelto a la andadas, he vuelto a enloquecer
lo vi escrito en la luna, luna creciente:
Delicada gasa
fuerte envoltura.
tope gansa
con la natura.
Y yo me quedo en casa, no necesito
tenerte cerca cuando vomito.
LA5
Me da igual.
FA5                 SOL5               LA5
me voy a poner deltoya sin parar.
                   FA5   SOL5 SOL5 SOL5    p.m
me da igual deltoya.
LA5                         FA5                       SOL5
Voy a dar la vuelta a tó y no sé muy bien porqué:
LA5             FA5  SOL5 SOL5 SOL5
y a romper deltoya.
LA5                          FA5                       SOL5
Y a firmar en todas las paredes con mi piel:
LA5            FA5 SOL5 SOL5 SOL5
a empezar deltoya.

  LA5 p.m                   FA5       |
Deltoyaaaaaaa  deltota                |Tocar estas notas mucahs veces con
  LA 5                        SOL5    |  p.m
Deltoyaaa deltoya delto delto delto   |

La he puesto en quitas porque es así además
de ser mas facil. También podéis tocar los acordes.

  Dedicada para todos los que llevan un trocito
de extremoduro y quieren ponerse deltoyAA.

Para mi prima rakel  y para mi grupo Minutos kaóticos,
espero k disfrutéis con ella.

Para cualquier duda: jose18moreno@hotmail.com
Visitad www.mk2008.tk
Saludos :José





Calificar esta versión:
Aviso: Este fichero es trabajo propio de su transcriptor y representa su interpretación personal de la canción. El material contenido en esta página es para exclusivo uso privado, por lo que se prohibe su reproducción o retransmisión, así como su uso para fines comerciales.