De Acero, Extremoduro (acordes)

Autor: Anónimo | 25240 visualizaciones

falammiremsol


Extremoduro
DE ACERO

|-------------------          |-------------------                                  
|-------------------          |------------------- 
|-------------------          |------------------- 
|--------7--6--7---           |------5--4---5----
|---5---------------          |---3---------------
|-------------------   x 4    |-------------------   x4

|-------------------          |---------------------------|-------------------- 
|-------------------          |---------------------------|--------------------
|-------------------          |------------3--------------|--------------6-----
|--------3--2--3---           |------5--------5---------- |-------7------------
|---1---------------          |---5----5----------5------ |---7-----7---------
|-------------------   x 4    |-3---------------------3-- |-5----------------



Rem
De acero soy de la cabeza a los pies
Y el cielo es solo un trozo de mi piel
Lam
De carne y hueso para ti
De carne y hueso solo para ti      

Rem
Y no me escondo casi nunca detrás de un cristal
Y no me escondo cuando kiero volar
Lam
Abre los ojos solo junto a mi
Abre las alas solo junto a mi 

Rem
Y no nos keda tiempo no nos podemos parar
K somos como el viento kien sabe donde ira
Lam
Abre los ojos k te kiero ver
Abre las piernas  k t kiero amar

Fa
Lam
Cada vez  k te vas 
Fa                   Sol     Lam
Doy la vuelta a todo de una pata

Cada vez kiero mas
Fa               Sol    Lam
No me digas k soy un animal

¿Dónde estas?  ¿Kien es kien?
Fa                     Sol       Mi
Si tu no vuelves ¿Dónde va a florecer?

Rem 
Aras de suelo casi casi no t puedo ver
Pego en el techo si te puedo mirar
Lam
Algo me dice k no puedo ser
Dejadme solo kiero respirar

Rem
Y hacer lo k me parezca bien
Y andar de aka para alla
Lam
Y en un minuto me encuentro mejor
Echo la pera y ya esta......

Rem
Y no nos keda tiempo no nos podemos parar
K somos como el viento kien sabe donde ira
Lam
Abre los ojos k te kiero ver
Abre las piernas al k t kiera mas

Fa
Lam
Cada vez  k te vas 
Fa                    Sol    Lam
Doy la vuelta a todo de una pata

Cada vez kiero mas

Fa               Sol    Lam
No me digas k soy un animal

¿Dónde estas?  ¿Kien es kien?
Fa                       Sol      Mi
Si tu no vuelves ¿Dónde va a florecer?               

[REPETIR 2 VECES]



Solo

Rem
Y no nos keda tiempo no nos podemos parar
K somos como el viento kien sabe donde ira
Lam
Abre los ojos k te kiero ver
Abre las piernas al k t kiera mas

Faltan los solos, pero bueno, 
pa tokar un rato ya vale.
 
Grasias a tos los k me soportan 
cuando toko en la CASIKA.

Pondria los nombres pero si se
me olvida alguno la liamos





Calificar esta versión:
Aviso: Este fichero es trabajo propio de su transcriptor y representa su interpretación personal de la canción. El material contenido en esta página es para exclusivo uso privado, por lo que se prohibe su reproducción o retransmisión, así como su uso para fines comerciales.