Abreme El Pecho Y Registra, Extremoduro (tablatura)

Autor: Anónimo | 19212 visualizaciones



Este tema va a ser algo difícil de preparar en tablatura,
pero lo intentaré mostrar lo mejor posible, a mi me suena
bastante bien, vamos... igual.

INTRO

e-------------------------0-----------------------------
B------0---------0--------1--1--1->-0->-1---------------
G------0---------0-----0-----0--0-----------------------
D---2-----2->-3-----3--2--------------------------------
A---3-----3->-4-----4-----------------------------------
E-------------------------------------------------------

*(el símbolo > , significa ligado).

PUNTEO (más o menos)

----7-------------------------------7----7-7--------------------
------10-8-10-8-7---------------7-8---10---------8-10->-12-10-8-
--9---------------7-7->-9-7---9--------------9-9----------------
----------------------------------------------------------------
----------------------------------------------------------------
----------------------------------------------------------------

La intro se repite hasta que acaba esta estrofa...

El cielo estaba rojo
como una amapola,
los ojos también rojos
de no haber dormido

La luna me ha dao el toque
-¡Niño estoy mu sola!,
me arrojo y me despierto
al dar contra el bordillo...

G1: SI5  DO5  FA#5  DO5  ...

G2: SI5  DO5  LA5  DO5  ...

PUNTEO 2

e------------------------------------------------------
B------------------------------------------------------
G--12-11-12------------------12-11-12------------------
D-----------12-10-9-------------------12-10-9-10-9-----
A-------------------12-10------------------------------
E------------------------------------------------------

e------------------------------------------------------
B------------------------------------------------------
G--12-11-12------------------12-11-12------------------------------
D-----------12-10-9-------------------12->-14-12-------------------
A-------------------12-10----------------------------------
E------------------------------------------------------

Siguen las mismas 2 guitarras de antes...

Hoy me siento ,al pensar,
como una foto en la pared
y no respiro
pa no hacer ruido

Y no cambio de postura
y si te paras a mirarme:
castigo, reviento
y no quiero hablar

Ahora cambian las guitarras, haciendo las 2 lo mismo:

SOL5  LA5  SOL5  LA5

Si todo me sale
de color de rosas
te prometo que esta noche
tu no duermes sola

DO5  RE5  DO5  RE5

Si nada me sale,
¡vete a hacer puñetas!
y aún me debes mil rabietas...

Cambia de nuevo a las 2 guitarras del princio, G1 y G2:

Cada vez que me ves
soy más guarro y más perro
y cada vez que te vas
me muero un poco más

Cada vez que me ves
metido en tu pensamiento
es que reniego del tiempo
hasta el final

De neuvo vuelven a cambiar las guitarras:

Si todo me sale....

Cambio otra vez y:

Y no es nada
comparado con el doler
que le da a mi alma: tu mirada
y no poder evitar...

Que hoy me vuelvo a sentir
como una foto en la pared
y no respiro
pa no hacer ruido

Y no cambio de postura
y si te paras a mirarme:
castigo, reviento
y no quiero hablar

Otra vez cambia y ya así hasta el final:

'NI VERTIENDO POLVO ---> Poema de Antonio Belarte Alíaga
en el cajón de los sueños
consigo auyentar las pesadillas
que pueblan mis borracheras,
largas noches de descontrol
y fuego perdido,
pequeñas y fieras alimañas
que devoran mi vida
hasta contaminarse.'

Bueno, pues como véis no es tan difícil, sólo práctica.

Si véis que algo se puede mejorar o algo que no este del
todo bien no dudéis en avisarme en mi correo, ok???

Y con esto y un bizcocho...A ENSAYAR!!!

Un saludo a mis coleguillas de Zafra
¡¡¡Y MÁS CONCIERTOS POR LA ZONA!!!


                                     Fernando Tomillo





Calificar esta versión:
Aviso: Este fichero es trabajo propio de su transcriptor y representa su interpretación personal de la canción. El material contenido en esta página es para exclusivo uso privado, por lo que se prohibe su reproducción o retransmisión, así como su uso para fines comerciales.