Orange Budda, Extincion (tablatura)

Autor: david_pxndx | 26141 visualizaciones



Orange buda

intro
e|-----------------------|
B|-----------------------|
G|-----------------------|
D|-----------------------|x2
A|-555-6-5--3333-666-8-5-|
E|-555-6-5--3333-666-8-5-|


luego va azi:
e|----------------------|------------------|
B|----------------------|------------------|
G|----------------------|------------------|
D|----------------------|------------------|x2
A|-555-6-5-3333-666-8-5-|-5-6-5--333-111-0-|
E|-555-6-5-3333-666-8-5-|-5-6-5--333-111-0-|


verso 1
e|------------------|-----------------|
B|------------------|-----------------|
G|------------------|-----------------|
D|---0-1-0----0-1-0-|---0-1-0---------|x2
A|-0-------33-------|-0-------33-11-0-|
E|------------------|-----------------|


coro
e|----------------------|------------------|
B|----------------------|------------------|
G|----------------------|------------------|
D|----------------------|------------------|x2
A|-555-6-5-3333-666-8-5-|-5-6-5--333-111-0-|
E|-555-6-5-3333-666-8-5-|-5-6-5--333-111-0-|


ahora verso 2
e|------------------|-----------------|
B|------------------|-----------------|
G|------------------|-----------------|
D|---0-1-0----0-1-0-|---0-1-0---------|x2
A|-0-------33-------|-0-------33-11-0-|
E|------------------|-----------------|


coro
e|----------------------|------------------|
B|----------------------|------------------|
G|----------------------|------------------|
D|----------------------|------------------|x2
A|-555-6-5-3333-666-8-5-|-5-6-5--333-111-0-|
E|-555-6-5-3333-666-8-5-|-5-6-5--333-111-0-|


intermedio: (kn p.m.)
e|-------------------------|
B|-----5-----4-----5-----4-|
G|-------------------------|
D|-------------------------|
A|-555---444---555---444---|
E|-555---444---555---444---|


ooh Dios aiudame, tienes q...        luego tocan ezto:
e|----------------------|  |-------------------|
B|----------------------|  |-------------------|
G|----------------------|  |-------------------|
D|----------------------|x2|--------7--------6-|x2
A|--5555-4444-5555-4444-|  |-5x5x5x-7-4x4x4x-6-|
E|--5555-4444-5555-4444-|  |-5x5x5x—--4x4x4x---|


entreee, la confusión....   ahora ezto:
e|----------------------|  |-------------------|
B|------5----4----5---4-|  |-------------------|
G|----------------------|  |-------------------|
D|----------------------|x2|--------7--------6-|x4
A|--555--444--555--444--|  |-5x5x5x-7-4x4x4x-6-|
E|--555--444--555--444--|  |-5x5x5x—--4x4x4x---|


ahora viene ezto:
NoTa:ezto se toca un poco rapido i c usa un poco d p.m.
e|-----------------|
B|-----------------|
G|-----------------|
D|-----------------|x4
A|--444—-77-66-555-|
E|--444—-77-66-555-|
    p.m.


coro
e|----------------------|------------------|
B|----------------------|------------------|
G|----------------------|------------------|
D|----------------------|------------------|x2
A|-555-6-5-3333-666-8-5-|-5-6-5--333-111-0-|
E|-555-6-5-3333-666-8-5-|-5-6-5--333-111-0-|


verso 3
e|------------------|-----------------|
B|------------------|-----------------|
G|------------------|-----------------|
D|---0-1-0----0-1-0-|---0-1-0---------|x2
A|-0-------33-------|-0-------33-11-0-|
E|------------------|-----------------|


ultimo coro:
NoTa:haien el ritmo!!
ieeee...
e|------------------------|
B|------------------------|
G|------------------------|
D|------------------------|x4
A|--555-6—5555-6666-88-66-|
E|--555-6-5555-6666-88-66-|

weno ezo ez todo!! spro q les sirva mi tab!! lez dejo mi correo x zi tienen dudas, reclamos, sugerenciaz, correcciones, felicitaciones etc!! es tankian_28@hotmail.com 





Calificar esta versión:
Aviso: Este fichero es trabajo propio de su transcriptor y representa su interpretación personal de la canción. El material contenido en esta página es para exclusivo uso privado, por lo que se prohibe su reproducción o retransmisión, así como su uso para fines comerciales.