El Plebeyo, Eva Ayllon (tablatura)

Autor: Anónimo | 44061 visualizaciones



Es una version muy cercana, se aceptan correcciones

INTRO

T:rapido varias veces
                                                          x2
|---------------------8-7-----------------7---------------|
|-----------------7-10---10-7----------7---10-7-10-8-7-8--|
|---------------8-------------8------8--------------------|
|--9H10--7-8-9------------------7-9-----------------------|
|---------------------------------------------------------|
|---------------------------------------------------------|
   T   arpegio
|--10--7----------7--10-7--------7----7-10-8-7-8-|
|---------9-----9----------9---9---10------------|
|------------9---------------9-------------------|
|------------------------------------------------|
|------------------------------------------------|
|------------------------------------------------|

|------------5-8-7-5---7-5-----5------------|
|------5-7-8---------8-----8-7---8-7-4-5----|
|--7-7--------------------------------------|
|-------------------------------------------|
|-------------------------------------------|
|-------------------------------------------|

|-----------------5s12-------14--15---------|
|--7-8-7-5-7-8------------------------------|
|-------------------------------------------|
|-------------------------------------------|
|-------------------------------------------|
|-------------------------------------------|

               LAm MI               LAm
La noche cubre ya con su negro crespon
                                      FA
de la ciudad las calles que cruza la gente (pausa)
                MI
con pausada accion

la luz artificial con debil proyeccion

propicia la penumbra que esconde en su sombra
                LAm
venganza y traicion

                LAm MI                   LAm
despues de laborar vuelve a su humilde hogar
                     LA7
Luis Enrique el plebeyo el hijo del pueblo
                REm
el hombre que supo amar

                   REm                 LAm
* y que sufriendo esta esta infamante ley
                         MI                     LAm
  de amar  a una aristocrata siendo un plebeyo el [BIS]

(1 vez cada acorde)
               SOL7      FA            MI
Tremulo de emocion dice asi en su cancion

                  LA MI               LA
El amor siendo humano tiene algo de divino
                                   FA#7   SIm
amar no es un delito porque hasta dios amo
                    MI
y si el cariño es puro y el deseo es sincero
                                     LA
porque robarme quieren la fe del corazon
                    DO#7                  FA#m FA#7
mi sangre aunque plebeya tambien tiñe de rojo
                    SIm FA#7             SIm
el alma en que se anida mi incomparable amor
                MI                  LA
ella de noble cuna y yo humilde plebeyo
                     SIm         SI7         MI
no es distinta la sangre ni es otro el corazon (pausa)
                                        LA
señor porque los seres no son de igual valor (BIS)

|---------------------8-7-----------------7---------------|
|-----------------7-10---10-7----------7---10-7-10-8-7-8--|
|---------------8-------------8------8--------------------|
|--9H10--7-8-9------------------7-9-----------------------|
|---------------------------------------------------------|
|---------------------------------------------------------|
    T    arpegio
|--10--7----------7--10-7--------7----7-10-8-7-8-|
|---------9-----9----------9---9---10------------|
|------------9---------------9-------------------|
|------------------------------------------------|
|------------------------------------------------|
|------------------------------------------------|

|-------------------------------10-8----------|
|----------------10-12--8-10-12------12-------|
|--------9-11-12------------------------------|
|-12-12---------------------------------------|
|---------------------------------------------|
|---------------------------------------------|

|-----8-------------------------7-10-11-12----|
|--10---12-10-8-8h7-----7--8-10---------------|
|-------------------8-9-----------------------|
|---------------------------------------------|
|---------------------------------------------|
|---------------------------------------------|


(1 vez cada acorde)
               SOL7      FA            MI
Tremulo de emocion dice asi en su cancion

                  LA MI               LA
El amor siendo humano tiene algo de divino
                                   FA#7   SIm
amar no es un delito porque hasta dios amo
                    MI
y si el cariño es puro y el deseo es sincero
                                     LA
porque robarme quieren la fe del corazon
                    DO#7                  FA#m FA#7
mi sangre aunque plebeya tambien tiñe de rojo
                    SIm FA#7             SIm
el alma en que se anida mi incomparable amor
                MI                  LA
ella de noble cuna y yo humilde plebeyo
                     SIm         SI7         MI
no es distinta la sangre ni es otro el corazon  [pausa]
                                        LA
señor porque los seres no son de igual valor





Calificar esta versión:
Aviso: Este fichero es trabajo propio de su transcriptor y representa su interpretación personal de la canción. El material contenido en esta página es para exclusivo uso privado, por lo que se prohibe su reproducción o retransmisión, así como su uso para fines comerciales.