Cambiaste Mi Plan, Eufemia (acordes)

Autor: xdarkesthourx | 24876 visualizaciones

bdsosggsos


 riff 1

e----------------
b-4-4-3-3-4-4-1-1
g---------------- se toca desde q empieza
d----------------
a----------------
e----------------

cambie de auto cambie de kasa cambie toda mi ropa

cambie a todos mis amigos me fui me fui sin despedirlos

       y todo paraaaaaaaaaaaaaaaa

D# [siguen tocandolo]G       G#    D#

para complacerteeeeeee

D#      G      G#   D#

sin manipulaaaaaaaar

D#      G     G#    D#

cambiaste mi plaaaaaaaaaan

D#        B      G#      D#

este le llamare CORO [ desde y todo paraaaaa
hasta cambiaste mi plaaaaaan]

luego tocan el riff 1

e----------------
b-4-4-3-3-4-4-1-1
g----------------
d----------------
a----------------
e----------------


siempre kisiste dibujar en mi cara una cara nueva
intoxicado idiotizado x ti hoy mi cara es nueva

luego sigue el CORO

       y todo paraaaaaaaaaaaaaaaa

D# [siguen tocandolo]G       G#    D#

para complacerteeeeeee

D#      G      G#   D#

sin manipulaaaaaaaar

D#      G     G#    D#

cambiaste mi plaaaaaaaaaan

D#        B      G#      D#

B G#    D#

luego viene el solo q es parecido al riff

e---------------------------
b-4-3-1-1-------1-----------
g------3-3-1-0-3-3-0-1-1-0-3
d---------------------------
a---------------------------
e---------------------------

e----------------------------
b-4-3-1-1-------1------------
g------3-3-1-0-3-3-0-1-1-0---
d-------------------------3-1
a----------------------------
e----------------------------

B G#    D# x 4


luego se repite el principio tocando el riff

e----------------
b-4-4-3-3-4-4-1-1
g----------------
d----------------
a----------------
e----------------

cambie de auto cambie de kasa cambie toda mi ropa

cambie a todos mis amigos me fui me fui sin despedirlos

luego sigue el CORO

       y todo paraaaaaaaaaaaaaaaa

D# [siguen tocandolo]G       G#    D#

para complacerteeeeeee

D#      G      G#   D#

sin manipulaaaaaaaar

D#      G     G#    D#

cambiaste mi plaaaaaaaaaan

D#        B      G#      D#

cambiaste mi plaaaaaaaaaan

D#        B      G#      D#

cambiaste mi plaaaaaaaaaan

D#        B      G#      D#

cambiaste mi plaaaaaaaaaan

D#        B      G#      D#

B G#    D# x 4 veces 





Comentarios del colaborador: saludos

Calificar esta versión:
Aviso: Este fichero es trabajo propio de su transcriptor y representa su interpretación personal de la canción. El material contenido en esta página es para exclusivo uso privado, por lo que se prohibe su reproducción o retransmisión, así como su uso para fines comerciales.