1.2, Eufemia (acordes)

Autor: xdarkesthourx | 17468 visualizaciones

abbmeemfsosfsosmggsosgsosm


 Standard tuning E

X   :  Muted
x   :  x veces
/   :  Slide


Notas:

    A   G#  G   F#  Em  E+  B  G#m  Bm  F#m

e|--5---4---3---2---0---7---2---4---7---2-------------------------|
B|--5---4---3---2---0---9---4---4---7---2-------------------------|
G|--6---5---4---3---0---9---4---4---7---2-------------------------|
D|--7---6---5---4---2---9---4---6---9---4-------------------------|
A|--7---6---5---4---2---7---2---6---9---4-------------------------|
E|--5---4---3---2---0---7---2---4---7---2-------------------------|



Intro:

e|--------------------------------------------------------|
B|--------------------------------------------------------|
G|-3x16-2-3-2-3-2-3-2-3--2x8--3x16-2-3-2-3-2-3-2-3-2x8-/3-|
D|--------------------------------------------------------|
A|--------------------------------------------------------|
E|--------------------------------------------------------|




Despues del incendio fue imposible


de encontrar las formas que te definen



         A           G#          G           F#
e|--------------------------------------------------------|
B|--------------------------------------------------------|
G|----------6-6---6-6---5-5---5-5---4-4---4-4---3-3---3-3-|
D|-X-X-X--------------------------------------------------|
A|-X-X-X--------------------------------------------------|
E|-X-X-X-5-5---5-5---4-4---4-4---3-3---3-3---2-2---2-2----|     [1]
   Muted

   A           G#            G           F#
e|---------------------------3-----------2------------|
B|---------------------------3-----------2------------|
G|----6-6---6-6---5-5---5-5--4-----------3------------|
D|---------------------------5-----------4------------|
A|---------------------------5-----------4------------|
E|-5-5---5-5---4-4---4-4-----3-x8--------2-x8---------|         [2]



A     G#        G      F#
Pero pude rescatar                 [1]

A           G#      G       F#
Algunas de tus celulas             [2]



Coro:

B     G#m       E+     F#
Y despues de reconstruirte

B        G#m      E+    F#
ya no habra otro dia triste


sin ti


e|---------|    |-----|     |--------|
B|---------|    |-----|     |--------|
G|-4-4-3-3-|    |-3-4-|     |-3x8-/4-|
D|---------|    |-----|     |--------|
A|---------|    |-----|     |--------|
E|---------|x8  |-----|x12  |--------|





Te puede hablar, ver, sujetar y camina


deficiencia pulmonar corregida


         A           G#          G           F#
e|--------------------------------------------------------|
B|--------------------------------------------------------|
G|----------6-6---6-6---5-5---5-5---4-4---4-4---3-3---3-3-|
D|-X-X-X--------------------------------------------------|
A|-X-X-X--------------------------------------------------|
E|-X-X-X-5-5---5-5---4-4---4-4---3-3---3-3---2-2---2-2----|      [1]
   Muted

   A           G#            G           F#
e|---------------------------3-----------2------------|
B|---------------------------3-----------2------------|
G|----6-6---6-6---5-5---5-5--4-----------3------------|
D|---------------------------5-----------4------------|
A|---------------------------5-----------4------------|
E|-5-5---5-5---4-4---4-4-----3-x8--------2-x8---------|          [2]


A     G#          G      F#
solo tengo ke exalar            [1]

A          G#        G    F#
su foto en su memoria           [2]




B     G#m       E+     F#
Y despues de reconstruirte

B        G#m      E+    F#
ya no habra otro dia triste

B    G#m         E+      F#
vestiras nueva piel clonada

B     G#m      E+    F#       Em
vives hoy viviras mañana tambien



Bm - G#m - F#m - Em

Bm - G#m - F#m - Em - E+




B     G#m       E+     F#
Y despues de reconstruirte

B        G#m      E+    F#
ya no habra otro dia triste

B    G#m         E+      F#
vestiras nueva piel clonada

B     G#m      E+    F#       Em
vives hoy viviras mañana tambien


F# - Bm
 





Comentarios del colaborador: saludos

Calificar esta versión:
Aviso: Este fichero es trabajo propio de su transcriptor y representa su interpretación personal de la canción. El material contenido en esta página es para exclusivo uso privado, por lo que se prohibe su reproducción o retransmisión, así como su uso para fines comerciales.