Jugar Al Despiste, Estopa (tablatura)

Autor: MaKi | 31811 visualizaciones



Esta cancion ta pepino xD... y encima ta facilisima...
parece liosa pero si lo haceis tranquilamente vereis que es facil

x7
|-----------------------------------------------------------------|
|-----------------------------------------------------------------|
|-----------------------------------------------------------------|
|-----------------------------------------------------------------|
|-5-5-5-5-3-3-3-3-1-1-1-1-3-3-3-3-5-5-5-5-3-3-3-3-1-1-1-1-2-2-2-2-|
|-7-7-7-7-5-5-5-5-3-3-3-3-5-5-5-5-7-7-7-7-5-5-5-5-3-3-3-3-0-0-0-0-|


|-----------|
|-----------|
|-----------|
|-5----1--3-|
|-5----1--3-|
|-7----3--5-|x2


|------------------------------------------------------------------|
|------------------------------------------------------------------|
|------------------------------------------------------------------|
|------------------------------------------------------------------|
|-0-0-0-0-0-0-0-0-2-2-2-2-2-2-2-2----------------------------------|
|----------------------------------1-1-1-1-1-1-1-1-3-3-3-3-3-3-3-3-|


|------------------------------------------------|
|------------------------------------------------|
|------------------------------------------------|
|------------------------------------------------|
|-3--3--3--3--5--5--5--5--7--7--7--7--7--7--7--7-|
|-1--1--1--1--3--3--3--3--5--5--5--5--5--5--5--5-|


|-----------------------------------------------------------------------------------------|
|-----------------------------------------------------------------------------------------|
|-----------------------------------------------------------------------------------------|
|-----------------------------------------------------------------------------------------|
|-2-2-2----2-2-2-2-2--2-2-2-2---3-3-3----3-3-3-3-3--3-3-3-3---2-2-2----2-2-2-2-2--2-2-2-2-|
|-0-0-0----0-0-0-0-0--0-0-0-0---1-1-1----1-1-1-1-1--1-1-1-1---0-0-0----0-0-0-0-0--0-0-0-0-|

x5
|-----------------------------------------------------------------|
|-----------------------------------------------------------------|
|-----------------------------------------------------------------|
|-----------------------------------------------------------------|
|-5-5-5-5-3-3-3-3-1-1-1-1-3-3-3-3-5-5-5-5-3-3-3-3-1-1-1-1-2-2-2-2-|
|-7-7-7-7-5-5-5-5-3-3-3-3-5-5-5-5-7-7-7-7-5-5-5-5-3-3-3-3-0-0-0-0-|


|-------------------------------------------------|
|-------------------------------------------------|
|-------------------------------------------------|
|-----7-----5-----3-----5-----7-----5-----3-----2-|
|-7-7-7-5-5-5-3-3-3-5-5-5-7-7-7-5-5-5-3-3-3-2-2-2-|
|-5-5-5-3-3-3-1-1-1-3-3-3-5-5-5-3-3-3-1-1-1-0-0-0-|

x4
|------------------------------------------------------------------|
|------------------------------------------------------------------|
|------------------------------------------------------------------|
|------------------------------------------------------------------|
|-0-0-0-0-0-0-0-0-2-2-2-2-2-2-2-2----------------------------------|
|----------------------------------1-1-1-1-1-1-1-1-3-3-3-3-3-3-3-3-|


|------------------------------------------------|
|------------------------------------------------|
|------------------------------------------------|
|------------------------------------------------|
|-3--3--3--3--5--5--5--5--7--7--7--7--7--7--7--7-|
|-1--1--1--1--3--3--3--3--5--5--5--5--5--5--5--5-|

|-----------------------------------------------------------------------------------------|
|-----------------------------------------------------------------------------------------|
|-----------------------------------------------------------------------------------------|
|-----------------------------------------------------------------------------------------|
|-2-2-2----2-2-2-2-2--2-2-2-2---3-3-3----3-3-3-3-3--3-3-3-3---2-2-2----2-2-2-2-2--2-2-2-2-|
|-0-0-0----0-0-0-0-0--0-0-0-0---1-1-1----1-1-1-1-1--1-1-1-1---0-0-0----0-0-0-0-0--0-0-0-0-|

x5
|------------------------------------------------------------------|
|------------------------------------------------------------------|
|------------------------------------------------------------------|
|------------------------------------------------------------------|
|-0-0-0-0-0-0-0-0-2-2-2-2-2-2-2-2----------------------------------|
|----------------------------------1-1-1-1-1-1-1-1-3-3-3-3-3-3-3-3-|





Calificar esta versión:
Aviso: Este fichero es trabajo propio de su transcriptor y representa su interpretación personal de la canción. El material contenido en esta página es para exclusivo uso privado, por lo que se prohibe su reproducción o retransmisión, así como su uso para fines comerciales.