El Condor Pasa, Esther Ofarim (tablatura)

Autor: sebasblack | 15642 visualizaciones



e--------------------------------0---3---0----5----3--0--0--------
B-------------0---1---0---1---3-----------------------------3--1--
G----2--1--2-----------------------------------------------------2
D--2--------------------------------------------------------------
A-----------------------------------------------------------------
E-----------------------------------------------------------------

e--5---3---5---3--5--5---8---5----3---3----5---3--0--0------------
B-------------------------------------------------------3---1-----
G---------------------------------------------------------------2-
D-----------------------------------------------------------------
A-----------------------------------------------------------------
E-----------------------------------------------------------------





Calificar esta versión:
Aviso: Este fichero es trabajo propio de su transcriptor y representa su interpretación personal de la canción. El material contenido en esta página es para exclusivo uso privado, por lo que se prohibe su reproducción o retransmisión, así como su uso para fines comerciales.