Cuando Los Dinosaurios Dominaban La Tierra, Eskorbuto (bajo)

Autor: Anónimo | 17601 visualizaciones



La parte A es para toda la letra,
incluyendo el vacío que hay por en medio (las toses esas).
La parte B es para el solo,
y la parte C es el final.
.................................................................
A)
--------------
--------------
--------------
--7--8--8--8--
sigue
---------------
---------------
---------------
--13--8--8--8--

B)
--------------
--------------
--------------
--7--8--8--6--
sigue
--------------
-----9--9--9--
--7-----------
--------------
sigue
--------------
--7--9--9--9--
--------------
--------------
sigue
--------------
--7--9--9--7--
--------------
--------------

C)
--------------------------------------------------
--9--9--9--9--7--7--7--7--------------------------
--------------------------9--9--9--9--------------
--------------------------------------7--7--7--7--
sigue
-----------------------------------------------------
--9--9--9--9--7--7--7--7-----------------9--7--------
--------------------------9--9--9--9-----------9-----
--------------------------------------7-----------7--
................................................................
Hace un millón de años, en la Prehistoria,
ellos eran los más fuertes y la fuerza era la ley.
Gigantescos, brutales, salvajes, animales.
Pero ocurrió, así fue: todos sucumbieron.

Ahora son petróleo, necesario en nuestro tiempo.

Cuando los dinosaurios dominaban la Tierra
era por la fuerza y ahora es de otra manera.





Calificar esta versión:
Aviso: Este fichero es trabajo propio de su transcriptor y representa su interpretación personal de la canción. El material contenido en esta página es para exclusivo uso privado, por lo que se prohibe su reproducción o retransmisión, así como su uso para fines comerciales.