Not Good Enough For Truth In Cliche, Escape The Fate (tablatura)

Autor: angeroXD | 20939 visualizaciones



/ = Slide 


  - Intro - Palm Mute 
e|---------------------------------------------------------------------------| 
B|---------------------------------------------------------------------------| 
G|----4----2--------------4-----0-------------0----0-------------0----0------| 
D|--0--------0----0----0----------0---0-----0---------0---0----0--------0---0| 
A|3------3-----3-----5-------5------5-----2------2------2----3------3-----3--| 
E|---------------------------------------------------------------------------| 


  - repeat again 

e|---------------------------------------------------------------------------| 
B|---------------------------------------------------------------------------| 
G|----4----2--------------4-----0-------------0----0-----------0-------------| 
D|--0--------0----0----0----------0---0-----0---------0---0----0-------------| 
A|3------3-----3-----5-------5------5-----2------2------2------3-------------| 
E|---------------------------------------------------------------------------| 


  - Verse 1 - 1st guitarist 
e|---------------------------------------------------------------------------| 
B|---------------------------------------------------------------------------| 
G|-9-9---9-9-9---9/11-11--11-11-11---11/7-7--7-7-7--7-7/12--11-9-7--repeat-2x| 
D|-x-x---x-x-x---x-x--x---x--x--x----x--x-x--x-x-x--x-x/x---x--x-x-----------| 
A|-7-7---7-7-7---7/9--9---9--9--9----9/-5-5--5-5-5--5-5/10--9--7-5-----------| 
E|---------------------------------------------------------------------------| 


  - Verse 1  - 2nd guitarist 
e|---------------------------------------------------------------------------| 
B|---------------------------------------------------------------------------| 
G|---------------------------------------------------------------------------| 
D|-5-5---5-5-5---5/7-7---7-7-7--7/4-4---4-4-4--4-4/5-5-5-5-5-5-5--repeat-2x--| 
A|-3-3---3-3-3---3/5-5---5-5-5--5/2-2---2-2-2--2-2/3-3-3-3-3-3-3-------------| 
E|---------------------------------------------------------------------------| 


  - Verse 2 - 1 of the guitarist plays the intro, while the other guitairst 
            play this 
e|---------------------------------------------------------------------------| 
B|---8--8--8--8--8--8--8--8----10--10--10--10----7--7--7--7-----repeat-4x----| 
G|----5--5--5--------------------------------------7--7--7--7----------------| 
D|---------------------------------------------------------------------------| 
A|---------------------------------------------------------------------------| 
E|---------------------------------------------------------------------------| 


   - Chorus - 
e|---------------------------------------------------------------------------| 
B|---------------------------------------------------------------------------| 
G|----------------------------4------------5------5555555--------------------| 
D|--5------------0------------4------------5------5555555--------------------| 
A|--5------------0------------2------------3------3333333--------------------| 
E|--5------------0-----------------------------------------------------------| 



e|---------------------------------------------------------------------------| 
B|---------------------------------------------------------------------------| 
G|--------------------------44444444-----55555555555-------------------------| 
D|--55555555----00000000----44444444-----55555555555-------------------------| 
A|--55555555----00000000----22222222-----33333333333-------------------------| 
E|--55555555----00000000-----------------------------------------------------| 




   - After Chorus goes back to Verse 1 
e|---------------------------------------------------------------------------| 
B|---------------------------------------------------------------------------| 
G|-9-9---9-9-9---9/11-11--11-11-11---11/7-7--7-7-7--7-7/12--11-9-7-----------| 
D|-x-x---x-x-x---x-x--x---x--x--x----x--x-x--x-x-x--x-x/x---x--x-x-----------| 
A|-7-7---7-7-7---7/9--9---9--9--9----9/-5-5--5-5-5--5-5/10--9--7-5-----------| 
E|---------------------------------------------------------------------------| 




e|---------------------------------------------------------------------------| 
B|---------------------------------------------------------------------------| 
G|-9-9---9-9-9---9/11-11--11-11-11---11--------------------------------------| 
D|-x-x---x-x-x---x-x--x---x--x--x----x--------9-----7-----5-----0------------| 
A|-7-7---7-7-7---7/9--9---9--9--9----9--------9-----7-----5-----0------------| 
E|--------------------------------------------9-----7-----5-----0------------|





Comentarios del colaborador: http://www.losacordes.com/tablaturas/escape-the-fate-/not-good-enough-for-truth-in-cliche

Calificar esta versión:
Aviso: Este fichero es trabajo propio de su transcriptor y representa su interpretación personal de la canción. El material contenido en esta página es para exclusivo uso privado, por lo que se prohibe su reproducción o retransmisión, así como su uso para fines comerciales.