Para Nadie, Eruca Sativa (acordes)

Autor: Anónimo | 16154 visualizaciones

abcc9dd-bd9ef6g
Ésta es mi primer transcripción, sean benevolentes.

La guitarra de Lula está afinada en RE. pero cambiando la afinación
a la 6ta cuerda a RE queda joya!

D9 F6 D/B C9

D9                F6
 Quien fue o fui yo
     D/B              C9
no puedo dejar de temerle al sol
D9            F6
quien me alejo
      D/B             C9
quien puso negro a tanta calma

riff

5-0--0-0-0-0---3--3-3-3---9--9-9-9---10--10-10-10------------
6-0--0-0-0-0---3--3-3-3---9--9-9-9---10--10-10-10---0--5-3-0-


[igual]
fallezco al ver cuanto
queda para hacer algo mas
[arreglo]
5|-3h5-3------
6|--------5--0

que otro error
en el sistema que impera
[arreglo]
5|-3h5-5-5-5--3------
6|---------------5--0

[igual]
curiosa verdad
el que tenga el baston impondra

[arreglo]
5|-3h5-3------
6|--------5--0

no temas mi amor
el cielo es negro para todos
[arreglo]
5|-3h5-5-5-5--3------
6|---------------5--0

[Estribo]
A*             G*
 no estoy para nadie
            A*
para ellos
               G*
no soy parte de esto
C    D  E    A
quiero ser luz

riff

6|-0-0-0-10-0-9--7/5--0h3-5--3P0-

[Sigue todo igual riff y arreglos]
cuanto hay que pagar
para respirar una vez mas
montañas de algo que
no sirven para nada
riff x4
6|-0-0-0-10-0-9--7/5--0h3-5--3P0-

no estoy para nadie
para ellos
no soy parte de esto
quiero ser luz

riff

5-0--0-0-0-0---3--3-3-3---9--9-9-9---10--10-10-10------------
6-0--0-0-0-0---3--3-3-3---9--9-9-9---10--10-10-10---0--5-3-0-

quien fue o fui yo
no pudo dejar de temerle al sol
quien me alejo
quien puso negro a tanta calma

no estoy para nadie
para ellos
no soy parte de esto

no estoy para nadie
para ellos
no soy parte de esto
quiero ser luz

riff x4

6|-0-0-0-10-0-9--7/5--0h3-5--3P0-

Acordes:
     D-A-D-G-B-E
D9   x-0-0-2-3-0
F6   x-0-3-2-3-0
D/B  x-2-0-0-3-0
C9   X-3-2-0-3-0

Del Estribillo

A*   7-7-7-6-0-0
G*   5-5-5-4-0-0
C,D,E,A son con las octavas agudas siguiente. [al mejor estilo Vai]

Saludos! si hay algún error ¡corrija!
Calificar esta versión:
Aviso: Este fichero es trabajo propio de su transcriptor y representa su interpretación personal de la canción. El material contenido en esta página es para exclusivo uso privado, por lo que se prohibe su reproducción o retransmisión, así como su uso para fines comerciales.