Amor Ausente, Eruca Sativa (tablatura)

Autor: Anónimo | 17568 visualizaciones

Intro

                               A #          D             A #
E---------15---------13--------10-----------------13------10------
B----11--------11---------11---------------13--------------------
G----------------------------------------------------------------
D-----------------------------------------------------------------

                                A #        D7              Gm
E---------15---------13--------10--------------------------------
B----11--------11---------11---------------13------11------8---
G------------------------------------------14------12------------
D-----------------------------------------------------------------

D#               A #               D#           F
Este nuevo amanecer mientras se vuela el presente
D#                 Dm               D#     D7 Gm
me trajo todo el ayer tu retrato entre la gente

intro…….

Tu sabes no soy tan frio no todo es lo que parece
mi sangre has visto correr como el fuego tantas veces

            D#   F     A#
Aun siento tu    caminar
        D#              F  A#
veo tu sombra en las paredes
           D#     Dm7 Gm
siento tu voz tan lejana
           D#     D7 Gm
siento tu amor ausente


Los caminos de este adios nos enseñan laberintos
Imposibles de borrar, un sentimiento escondido

-Repite estribillo-
Calificar esta versión:
Aviso: Este fichero es trabajo propio de su transcriptor y representa su interpretación personal de la canción. El material contenido en esta página es para exclusivo uso privado, por lo que se prohibe su reproducción o retransmisión, así como su uso para fines comerciales.