White Waters, Epica (tablatura)

Autor: therocker1 | 41942 visualizaciones



-Hola esta es la tablatura bueno aqui se las dejo...
-Hello this is good tablature I leave here ...
_______________________________
-Es muy importante que lean antes de hacer las cosas!!
-It is very important to read before making things!!
_______________________________

-This is repeated 2 times:-Esto se repite 2 veces:
|---------|---------|---------|------------------------|
|---------|---------|---------|------------------------|
|---------|---------|---------|------------------------|
|----4----|-------0-|-------0-|-------0--------0-----2-|
|-2-----5-|----4----|----2----|----5--------5-----4----|
|---------|-5-------|-3-------|-3--------2-------------|(x2)
-Y ya que tocan el ultimo 4-2 hacen lo siguiente:
-And they play the last 4-2 do the following:
|------------------|------------------|  |------------------|
|------------------|----------------0-|  |------------------|
|----------------0-|-------------0----|  |-------------0----|
|----4-----4-------|-------0--4-------|  |-------0--------0-|
|-2-----5-----5----|----4-------------|  |----2-----2-------|
|------------------|-5----------------|  |-3----------------|

|------------------------|   
|------------------------| -Todo esto se repite  
|----------------------2-|  2 veces
|-------0--------0--4----| -All this is repeated 
|----5--------5----------|  2 times
|-3--------2-------------|(x2)
-Aclaracion: todo se repite hasta el segundo pedazo que es 5-4-0-4-0-0 y seguimos a lo siguiente
-Disclaimer: everything is repeated until the second piece is 5-4-0-4-0-0 and continue to the following

|---------|------------------|----------------0-|
|---------|----0-----0-----1-|----------0--1----|
|-(0)-----|-------0-----0----|-------0----------|
|--2------|-2----------------|-0--4-------------|
|--3------|------------------|------------------|
|---------|------------------|------------------|

|------------------|----------------------| -Se repite
|-------------1----|----------------------|  2 veces
|-------0--------0-|--------------------2-| -Repeat 
|----2-----2-------|--0--0-----0--0--4----|  2 times
|-3----------------|----------------------|
|------------------|-3------2-------------|(x2)

|-------|------------------------|------------------------|
|-------|------------------------|------------------------|
|-------|------------------------|------------------------|
|-(3)---|-------2--------2-----2-|-------3--------2-----2-|
|--0----|----2--------2----------|----2--------2----------|
|-------|-0--------0--------0----|-0--------0--------0----|

|---------------------------||----------------------------|
|---------------------------||----------------------------|
|---------------------------||----------------------------|
|-------2--------3----------||---------2----------2-----2-|
|----2--------2--------2----||----0h2--------0h2----------|
|-0--------0--------0-------||-0----------0----------0----|

|----------------------------|----------------------------|
|----------------------------|----------------------------|
|----------------------------|----------------------------|
|---------4----------5-----5-|---------2----------2-----2-|
|----0h2--------0h2----------|----0h2--------0h2----------|
|-0----------0----------0----|-0----------0----------0----|

|----------------------------|----------------------------|
|----------------------------|----------------------------|
|----------------------------|----------------------------|
|---------4----------5-----5-|---------5----------5-----5-|
|----0h2--------0h2----------|----0h3--------0h3----------|
|-0----------0----------0----|-0----------0----------0----|

|----------------------------|----------------------------|
|--------------------0-------|----------------------------|
|--------------------0-----4-|----------------------------|
|---------5------------------|---------2----------2-----2-|
|----0h3--------0h3----------|----0h2--------0h2----------|
|-0----------0----------0----|-0----------0----------0----|

|----------------------------|
|----------------------------|
|----------------------------|
|---------3----------2-----2-|
|----0h2--------0h2----------|
|-0----------0----------0----|
-Aqui se repite dos veces hasta donde es 0-0h3-5-0-0h3-00-0-4 y luego lo siguiente:
-Here is repeated twice so far is 0-0h3-5-0-0h3-00-0-4 and then the following:

|---------------------------|------------a-------|
|---------0--------1--------|----------0-a-------|
|-------0-------0-(0)--0----|-------0--0-a-------|
|----2-------2------------2-|----0-------a--(0)--|
|-3-------------------------|-2----------a---0---|
|---------------------------|------------a-------|

|------------------------|------------------------|
|-------3--------3-------|-------3--------3-------|
|-------------4--------4-|-------------2--------2-|
|----4-------------------|----4-------------------|
|-2--------2--------2----|-2--------2--------2----|
|------------------------|------------------------|

|------------------------|--------------------------|
|-------2--------2-------|-------3--/5------5-------|
|-------------2--------2-|------(4)/(6)--------4----|
|----4-------------------|----4----------4--------4-|
|-2--------2--------2----|-2------------------------|
|------------------------|--------------------------|(x2)

|---------------------|
|-------3--2----------|
|----0--------3-------|
|-4--------------4----|
|-------------------2-|
|---------------------|

-Esa es toda la tablatura bueno espero y le haya gustado, lean el  comentario y comenten ustedes...
-That's all good I hope and tablature you liked, read the comment and comment you ...





Comentarios del colaborador: si no le entienden muy bien aqui les dejo la pagina de donde saque la tablatura, no se puede copiar la tablatura de ahi por eso la transcribi aqui les dejo el link: http://www.songsterr.com/a/wsa/epica-white-waters-guitar-tab-s70314t0

Calificar esta versión:
Aviso: Este fichero es trabajo propio de su transcriptor y representa su interpretación personal de la canción. El material contenido en esta página es para exclusivo uso privado, por lo que se prohibe su reproducción o retransmisión, así como su uso para fines comerciales.