Sólo Dios Puede Salvar, En Espiritu Y En Verdad (tablatura)

Autor: Anónimo | 15280 visualizaciones

intro:

            E|----------
            B|----12-14-
            G|-14-------

            D, A, F#m, E


verso 1:

D          A                    F#m
todos necesitan amor que nunca falla
E                D
tu gracia y compacion
D           A                 F#m
 todos necesitan perdon y esperanza
  E                D
y un Dios que salve


             E|-----------
             B|-7-9-10-12-
             G|-7-9--9--9-
             D|-7-9--7--9-
             A|-5-7-------
             e|-----------

             D, E, D, E

coro:

A                  E
Cristo puede mover montes
          D           A
solo Dios puede salvar
        F#m         E
mi Dios puede salvar
    A                   E
por siempre autor de salvacion
         D            A
Jesus la muerte vencio
      F#m          E
El la muerte vencio


verso 2:

D             A                  F#m
 aun en mis temores, se que me aceptas
E               D
llename otra vez
D              A                    F#m
 mi vida te ofresco para seguir tus pasos
E            D
a ti me rindo


coro:

A                  E
Cristo puede mover montes
          D           A
solo Dios puede salvar
        F#m         E
mi Dios puede salvar
    A                   E
por siempre autor de salvacion
         D            A
Jesus la muerte vencio
      F#m          E
El la muerte venció


solo:
         D

|---9---9---9--9---9---9---9---9--9--9|
|--10--10--10-10--10--10--10--10-10-10|
|-9---9---9----9--9----9---9----------|
|-------------------------------------|
|-------------------------------------|
|-------------------------------------|

 A          E            F#m

|-------------------------------------|
|-99999999-121212121212-212121212121s-|
|-------------------------------------|
|-------------------------------------]
|-------------------------------------|
|-------------------------------------|

   D
|--9--9--7--9--7--9--7--9--9--7--9-9--|
|-10-10-10-10-10-10-10-10-10-10-10-10-|
|-------------------------------------|
|-------------------------------------|
|-------------------------------------|
|-------------------------------------|

  A        E           F#m
|---------------------------------------|
|-99999999-121212121212-21212121212121s-|
|---------------------------------------|
|---------------------------------------|
|---------------------------------------|
|---------------------------------------|

outro:
D             A        E
en la tierra tu luz brillara
   D             A           E
cantamos por la gloria de tu majestad



  ESPERO LES GUSTE
Calificar esta versión:
Aviso: Este fichero es trabajo propio de su transcriptor y representa su interpretación personal de la canción. El material contenido en esta página es para exclusivo uso privado, por lo que se prohibe su reproducción o retransmisión, así como su uso para fines comerciales.