Los Santos Vienen, En Espiritu Y En Verdad (acordes)

Autor: german g | 43560 visualizaciones

amcdmfg
Esta parte se repite varias veces

E------------------------------------------------------
A------------------------------------------------------
D------------------------------------------------------
G------9--9--9--10--10--10--7--7--7--9--9--9--7--9--7--
B--10--------------------------------------------------
e------------------------------------------------------


Esta solo se toca después de la primera y solo es en el intro

E-----------------------------------------------------------
A-----------------------------------------------------------
D-----------------------------------------------------------
G--10--10--10-----------------------------------------------
B--------------13--13--13--9--9--9--9--9--9--9--12--12--12--
e-----------------------------------------------------------
 Acabando el intro empieza la cancion

Am              C      F              G
Las Voces De Justicia Inundan La Tierra
Am             C      F              G
Con Voces De Adoración Todo Alumbraran

F              C            G
Son Los Justos De Nuestro DIOS
F             C       G
Los Escogidos De Jehová

F            C    G
Los Santos Vienen Ya
F                C         G
A Exaltar La Grandeza Del Rey
Dm       Em/C        F
Y La Luz Resplandecerá
Dm         Am              F       G
Al Todos Adorar Al DIOS De Majestad.

Am                  C      F             G
Vienen Hoy Para Adorar Al Único Lleno De Luz
Am                     C           F            G
Los Puedes Ver Acercándose A Encontrarse Con Su Rey

        F     C      G
////////Hosanna Al Rey////////.


un saludo para la mayra y el nano y apra Manantial de vida 

Comentarios del colaborador: jajjaja

Calificar esta versión:
Aviso: Este fichero es trabajo propio de su transcriptor y representa su interpretación personal de la canción. El material contenido en esta página es para exclusivo uso privado, por lo que se prohibe su reproducción o retransmisión, así como su uso para fines comerciales.