19, Emmanuel Horvilleur (tablatura)

Autor: juancete | 37469 visualizaciones



Nena, 19 son tus?                         tienes tantos novios?
e|-------------------------------------------0----0----0----0--0-|
B|-10--10--10--10---------------------------1----1----1----1---1-|
G|---------------------------------5h7--5------------------------|
D|-----------------------5--7--------------2----1----------------|
A|-8---7---6-------5--8-------5--8-------------------5----4----3-|
E|-------------10------------------------------------------------|

e|-------1-5-|
B|-----3-----|
G|---2-------|
D|-0---------|
A|-----------|
E|-----------|

Instrumental:

Guitarra 1:
e|-8/10-8-----------8/10-8--------------------|
B|-8/10-8?-10*8-10--8/10-8--10*8-10--8--------|
G|-------------------------------------10-----|
D|--------------------------------------------|
A|--------------------------------------------|
E|--------------------------------------------|

e|--8/10-11-15--------------------------------|
B|----------(10*8 2da gtr)---10*8-10*8-10-8---|
G|------------------------------------------10|
D|--------------------------------------------|
A|--------------------------------------------|
E|--------------------------------------------|

Guitarra 2: F Dm F Dm (x2)


      F
Nena, yo no fui
       Dm
el que te mando a matar
         F
lo entendiste mal
       Dm
no te quise lastimar
     Bb            C       Dm
Pues nena lo entendiste mal
         F       G
yo no quise matar,
    Bb
lo nuestro.

Y en la soledad
de mi cuestión emocional
tuve un plan genial
no lo voy a confesar

Pues nena lo entendiste mal
yo no quise matar...
lo nuestro.....
lo nuestro.

Pues nena lo entendiste mal
yo no quise matar
lo nuestro...(X3)





Calificar esta versión:
Aviso: Este fichero es trabajo propio de su transcriptor y representa su interpretación personal de la canción. El material contenido en esta página es para exclusivo uso privado, por lo que se prohibe su reproducción o retransmisión, así como su uso para fines comerciales.