Superman, Eminem (tablatura)

Autor: hemith | 37673 visualizaciones



Los dejo con esta otra rola de eminem
la cuel me encanta or el video
chequenlo

E--------------------------------------------
B--------------------------------------------
G--------2-------------0-------0-------------
D------2------------2-------0----------2-----
A--0-------0--2--3--------2----------2-------
E---------------------------------0----------

E---------------------------------------------
B-------------------------8--------8----12----
G--------2-------------9--------7-------------
D------2-----------10--------9----------------
A---0-------0--2------------------------------
E---------------------------------------------

hojala y les sirva lo que ise esque me late como rapea eminem
 
Bueno los dejo cuindense





Calificar esta versión:
Aviso: Este fichero es trabajo propio de su transcriptor y representa su interpretación personal de la canción. El material contenido en esta página es para exclusivo uso privado, por lo que se prohibe su reproducción o retransmisión, así como su uso para fines comerciales.