Lose Yourself, Eminem (tablatura)

Autor: oscar16 | 45193 visualizaciones



guitarra 1
e|-6-----6-4-----4-6----------9-7-6---6-----6-4-----4-6--------|
B|---7-------6-------7--------------9---7-------6-------7------|
G|-----8-------6-------8------------------8-------6-------8----|
D|-------------------------------------------------------------|
A|-------------------------------------------------------------|
E|-------------------------------------------------------------|

guitarra 2

e|-------------------------------------------------------------|
B|----------9---------------------------------9----------------|
G|-8-----10-------8-11---8-11------8-------10-------8-11---8-11|
D|-----11-------9------9------------------11-------9------9----|
A|-------------------------------------------------------------|
E|-------------------------------------------------------------|

guitarra 1

e|-------------------------6-7-10------------------------------|
B|-4-0---4-2-----0---------------------------------------------|
G|-----1-----------3-1--------------3-5-7----------------------|
D|-------------------------------------------------------------|
A|-------------------------------------------------------------|
E|-------------------------------------------------------------|

guitarra 2


e|-------------------------------------------------------------|
B|-----4-------2-----------------------------------------------|
G|---4-------3----------------------3---3----------------------|
D|-6-------4---------3------------3----------------------------|
A|------------------------------1------------------------------|
E|-------------------------------------------------------------|

Riff   |PM|          |PM|          |PM|
e|-------------------------------------------------------------|
B|-------------------------------------------------------------|
G|-------------------------------------------------------------|
D|-7777-00--77p0-8888-00--88p0-7777-00--77p0-8888-8p0-7-8p0-7--|
A|-5555-55--55---5555-55--55---5555-55--55---5555-5---5-5---5--|
E|-------------------------------------------------------------|






Calificar esta versión:
Aviso: Este fichero es trabajo propio de su transcriptor y representa su interpretación personal de la canción. El material contenido en esta página es para exclusivo uso privado, por lo que se prohibe su reproducción o retransmisión, así como su uso para fines comerciales.