No Me Vas A Callar, Elis Paprika (tablatura)

Autor: moder | 39843 visualizaciones



inttro(guitarra 1)
e-/--555555-777777---------------------------------
B-/----------------777777-5-7-5-7------------------
G-/------------------------------------------------ x6
D-/------------------------------------------------
A-/------------------------------------------------
E-/------------------------------------------------

guitarra 2
e-/------------------------------------------------
B-/------------------------------------------------
G-/--------77777-99999999--------------------------
D-/--99999-77777-99999999--------------------------
A-/--99999-55555-77777777--------------------------
E-/--77777-----------------------------------------

B   D   E
Te gusto
                 B    D  E
esto no esta bn para los 2

tu tu tu
B       D      E
tu que vienes hoy
                  B  C   E
yo no me voy a callar

no no no

e-----555555-777777--------------------
b-------------------777777-5-7-5-7-5---
g--------------------------------------   x4
d--------------------------------------
a--------------------------------------
E--------------------------------------
guitarra 2
e|------------------------------------
b|------------------------------------
g|---------77777--99999999------------
d|--99999--77777--99999999------------    x4
a|--99999--55555--77777777------------
E|--77777-----------------------------

B    D    E
de que vas
            B
tu solo solo
    D       E
kieres molestar

oh baby baby
  B        D        E
i am fucking tired

oh oh


 B                 D
no yo no me voy a callar

   B
nono

no yo no me voy a callar
   D                               x2
nono

no me voy a callar
   E
nono
                     B
no me vas a callar jamas

solo
e--11-b-13---9-b-11---7-b-9-------------
b-------------------------------11-9-7--
g---------------------------------------
d---------------------------------------
a---------------------------------------
E---------------------------------------

B   D   E
Te gusto
                 B    D  A
esto no esta bn para los 2

tu tu tu
B       D      E
tu que vienes hoy
                  B  C   A
yo no me voy a callar

no no no

 B
yo no me voy a callar
 D
al infierno tu te iras
 B
yo no me voy a callar
 D
no te pienso ni acompaÑar

   B
nono

no yo no me voy a callar
   D                                x2
nono

no me voy a callar
   E
nono
                     B
no me vas a callar jamas


Guitarra 1
e-----555555-777777--------------------
b-------------------777777-5-7-5-7-5---
g--------------------------------------   x4
d--------------------------------------
a--------------------------------------
E--------------------------------------

guitarra 2
e|------------------------------------
b|------------------------------------
g|---------77777--99999999------------
d|--99999--77777--99999999------------    x4
a|--99999--55555--77777777------------
E|--77777-----------------------------





Calificar esta versión:
Aviso: Este fichero es trabajo propio de su transcriptor y representa su interpretación personal de la canción. El material contenido en esta página es para exclusivo uso privado, por lo que se prohibe su reproducción o retransmisión, así como su uso para fines comerciales.