Lolita, Elefant (tablatura)

Autor: Rudo | 44875 visualizaciones



Intro:
G1
e|-------------------------------------------------------------------------|
B|-------------------------------------------------------------------------|
G|-------------------------------------------------------------------------|
D|-------------------------------------------------------------------------|x2
A|-------------------------------------------------------------------------|
E|--0-0--3-3--2-2--5-5--3-3--7-7--5-5--7--0-0--3-3--2-2--5-5--3-3--2-2--0-|


Verse 1
G1
e|-------------------------------------------------------------------------|
B|-------------------------------------------------------------------------|
G|-------------------------------------------------------------------------|
D|-------------------------------------------------------------------------|x2
A|-------------------------------------------------------------------------|
E|--0-0--3-3--2-2--5-5--3-3--7-7--5-5--7--0-0--3-3--2-2--5-5--3-3--2-2--0-|

G1
e|-------------------------------------------------------------------------|
B|-------------------------------------------------------------------------|
G|-------------------------------------------------------------------------|
D|-------------------------------------------------------------------------|x3
A|-------------------------------------------------------------------------|
E|--0-0--3-3--2-2--5-5--3-3--7-7--5-5--7--0-0--3-3--2-2--5-5--3-3--2-2--0-|
|
|G2
e|-------------------------------------------------------------------------|
B|-------------------------------------------------------------------------|
G|-------------------------------------------------------------------------|
D|--2-2--5-5--4-4--7-7--5-5--9-9--7-7--9--2-2--5-5--4-4--7-7--5-5--4-4--2-|x3
A|--2-2--5-5--4-4--7-7--5-5--9-9--7-7--9--2-2--5-5--4-4--7-7--5-5--4-4--2-|
E|--0-0--3-3--2-2--5-5--3-3--7-7--5-5--7--0-0--3-3--2-2--5-5--3-3--2-2--0-|


e|------0-----0------------|
B|-------------------------|
G|-------------------------|
D|-------------------------|x2
A|-------------------------|
E|-------------------------|
|
|
e|-------------------------|
B|-------------------------|
G|-------------------------|
D|--4-4---4-4---5-5-4-4-2--|
A|--4-4---4-4---5-5-4-4-2--|
E|--2-2---2-2---3-3-2-2-0--|


Pre-chorus
e|---------------------------|
B|---------------------------|
G|---------------------------|
D|--5-5-5-5-5-5-5-5-9-9-9-9--|
A|--5-5-5-5-5-5-5-5-9-9-9-9--|
E|--3-3-3-3-3-3-3-3-7-7-7-7--|
|
|
e|---------------------------|
B|---------------------------|
G|---------------------------|
D|--5-5-5-5-5-5-5-5-9-9-9-9--|
A|--5-5-5-5-5-5-5-5-9-9-9-9--|
E|--3-3-3-3-3-3-3-3-7-7-7-7--|

Chorus
e|----------------------------------------------------------|
B|--------7-7-----------7-7-----------7-7-----------7-7-----|
G|------------7-9-----------7-9-----------7-9-----------7-9-|
D|------9-------------9-------------9-------------9---------|
A|----------------------------------------------------------|
E|----------------------------------------------------------|
|
|
e|----------------------------------------------------------|
B|----------------------------------------------------------|
G|----------------------------------------------------------|
D|--2-2--2-2-2--2-5-5--5-5-5--5-7-7--7-7-7--7-9-9--9-9-9----|
A|--2-2--2-2-2--2-5-5--5-5-5--5-7-7--7-7-7--7-9-9--9-9-9----|
E|--0-0--0-0-0--0-3-3--3-3-3--3-5-5--5-5-5--5-7-7--7-7-7----|


e|--------------------------------------------|
B|--------7-7-----------7-7-----------7-7-----|
G|------------7-9-----------7-9-----------7-9-|
D|------9-------------9-------------9---------|
A|--------------------------------------------|
E|--------------------------------------------|
|
|
e|--------------------------------------------|
B|--------------------------------------------|
G|--------------------------------------------|
D|--2-2--2-2-2--2-5-5--5-5-5--5-7-7--7-7-7--7-|
A|--2-2--2-2-2--2-5-5--5-5-5--5-7-7--7-7-7--7-|
E|--0-0--0-0-0--0-3-3--3-3-3--3-5-5--5-5-5--5-|


e|------------------------------------------------------------------------|
B|------------------------------------------------------------------------|
G|------------------------------------------------------------------------|
D|------------------------------------------------------------------------|
A|------------------------------------------------------------------------|
E|-0-0--3-3--2-2--5-5--3-3--7-7--5-5--7--0-0--3-3--2-2--5-5--3-3--2-2--0-|
|
|
e|------------------------------------------------------------------------|
B|------------------------------------------------------------------------|
G|------------------------------------------------------------------------|
D|-2-2--5-5--4-4--7-7--5-5--9-9--7-7--9--2-2--5-5--4-4--7-7--5-5--4-4--2-|
A|-2-2--5-5--4-4--7-7--5-5--9-9--7-7--9--2-2--5-5--4-4--7-7--5-5--4-4--2-|
E|-0-0--3-3--2-2--5-5--3-3--7-7--5-5--7--0-0--3-3--2-2--5-5--3-3--2-2--0-|


Verse 2
e|-------------------------------------------------------------------------|
B|-------------------------------------------------------------------------|
G|-------------------------------------------------------------------------|
D|-------------------------------------------------------------------------|
A|-------------------------------------------------------------------------|
E|--0-0--3-3--2-2--5-5--3-3--7-7--5-5--7--0-0--3-3--2-2--5-5--3-3--2-2--0-|


e|----------------------------------------|
B|----------------------------------------|
G|----------------------------------------|
D|----------------------------------------|
A|----------------------------------------|
E|--0-0--3-3--2-2--5-5--3-3--7-7--5-5--7--|


Pre-chorus
e|---------------------------|
B|---------------------------|
G|---------------------------|
D|--5-5-5-5-5-5-5-5-9-9-9-9--|
A|--5-5-5-5-5-5-5-5-9-9-9-9--|
E|--3-3-3-3-3-3-3-3-7-7-7-7--|
|
|
e|---------------------------|
B|---------------------------|
G|---------------------------|
D|--5-5-5-5-5-5-5-5-9-9-9-9--|
A|--5-5-5-5-5-5-5-5-9-9-9-9--|
E|--3-3-3-3-3-3-3-3-7-7-7-7--|

 2nd Chorus 
e|----------------------------------------------------------|
B|--------7-7-----------7-7-----------7-7-----------7-7-----|
G|------------7-9-----------7-9-----------7-9-----------7-9-|
D|------9-------------9-------------9-------------9---------|x2
A|----------------------------------------------------------|
E|----------------------------------------------------------|
|
|
e|----------------------------------------------------------|
B|----------------------------------------------------------|
G|----------------------------------------------------------|
D|--2-2--2-2-2--2-5-5--5-5-5--5-7-7--7-7-7--7-9-9--9-9-9----|x2
A|--2-2--2-2-2--2-5-5--5-5-5--5-7-7--7-7-7--7-9-9--9-9-9----|
E|--0-0--0-0-0--0-3-3--3-3-3--3-5-5--5-5-5--5-7-7--7-7-7----|


e|----------------------------------------------------------|
B|----------------------------------------------------------|
G|----------------------------------------------------------|
D|--2-4-4--2-4-4--5-7-7--5-7-7--7-9-9--7-9-9--7-9-9--7-9-9--|x3
A|--2-4-4--2-4-4--5-7-7--5-7-7--7-9-9--7-9-9--7-9-9--7-9-9--|
E|--0-2-2--0-2-2--3-5-5--3-5-5--5-7-7--5-7-7--5-7-7--5-7-7--|
|
|
e|----------------------------------------------------------|
B|----------------------------------------------------------|
G|----------------------------------------------------------|
D|--2-4-4--2-4-4--5-7-7--5-7-7--7-9-9--7-9-9--7-9-9--7-9-9--|x3
A|--2-4-4--2-4-4--5-7-7--5-7-7--7-9-9--7-9-9--7-9-9--7-9-9--|
E|--0-2-2--0-2-2--3-5-5--3-5-5--5-7-7--5-7-7--5-7-7--5-7-7--|


e|--------------------------------|
B|--------------------------------|
G|--------------------------------|
D|--2-4-4--2-4-4--5-7-7--5-7-7--7-|
A|--2-4-4--2-4-4--5-7-7--5-7-7--7-|
E|--0-2-2--0-2-2--3-5-5--3-5-5--5-|
|
|
e|--------------------------------|
B|--------------------------------|
G|--------------------------------|
D|--2-4-4--2-4-4--5-7-7--5-7-7--7-|
A|--2-4-4--2-4-4--5-7-7--5-7-7--7-|
E|--0-2-2--0-2-2--3-5-5--3-5-5--5-|


Bridge
e|-------------------------|
B|------7-7--------7-7-----|
G|----------7-9--------7-9-|
D|----9----------9---------|x4
A|-------------------------|
E|-------------------------|
|
|
e|-------------------------|
B|-------------------------|
G|-------------------------|
D|--2-2--4-4-------7-7-9---|x4
A|--2-2--4-4-------7-7-9---|
E|--0-0--2-2-------5-5-7---|



e|-------------------------|
B|------7-7--------7-7-----|
G|----------7-9--------7-9-|
D|----9----------9---------|x3
A|-------------------------|
E|-------------------------|
|
|
e|-------------------------|
B|-------------------------|
G|-------------------------|
D|--2-2-5-5-4-4-7-7--------|x3
A|--2-2-5-5-4-4-7-7--------|
E|--0-0-3-3-2-2-5-5--------|



e|------------------------------------|
B|------7-7--------7-7----------------|
G|----------7-9--------7-9------------|
D|----9----------9--------------------|
A|------------------------------------|
E|------------------------------------|
|
|
e|------------------------------------|
B|------------------------------------|
G|------------------------------------|
D|--2-2-5-5-4-4-7-7-5-5-9-9-12-12-14--|
A|--2-2-5-5-4-4-7-7-5-5-9-9-12-12-14--|
E|--0-0-3-3-2-2-5-5-3-3-7-7-10-10-12--|


Chorus
e|----------------------------------------------------------|
B|--------7-7-----------7-7-----------7-7-----------7-7-----|
G|------------7-9-----------7-9-----------7-9-----------7-9-|
D|------9-------------9-------------9-------------9---------|x3
A|----------------------------------------------------------|
E|----------------------------------------------------------|
|
|
e|----------------------------------------------------------|
B|----------------------------------------------------------|
G|----------------------------------------------------------|
D|--2-2--2-2-2--2-5-5--5-5-5--5-7-7--7-7-7--7-9-9--9-9-9----|x3
A|--2-2--2-2-2--2-5-5--5-5-5--5-7-7--7-7-7--7-9-9--9-9-9----|
E|--0-0--0-0-0--0-3-3--3-3-3--3-5-5--5-5-5--5-7-7--7-7-7----|


e|--------------------------------------------|
B|--------7-7-----------7-7-----------7-7-----|
G|------------7-9-----------7-9-----------7-9-|
D|------9-------------9-------------9---------|
A|--------------------------------------------|
E|--------------------------------------------|
|
|
e|--------------------------------------------|
B|--------------------------------------------|
G|--------------------------------------------|
D|--2-2--2-2-2--2-5-5--5-5-5--5-7-7--7-7-7--7-|
A|--2-2--2-2-2--2-5-5--5-5-5--5-7-7--7-7-7--7-|
E|--0-0--0-0-0--0-3-3--3-3-3--3-5-5--5-5-5--5-|



e|----------------------------------------|   |---------------------------------|
B|----------------------------------------|   |---------------------------------|
G|----------------------------------------|   |---------------------------------|
D|----------------------------------------|x3 |---------------------------------|
A|----------------------------------------|   |---------------------------------|
E|--0-0--3-3--2-2--5-5--3-3--7-7--5-5--7-|   |-0-0--3-3--2-2--5-5--3-3--2-2--0-|
|
|
e|----------------------------------------|   |---------------------------------|
B|----------------------------------------|   |---------------------------------|
G|----------------------------------------|   |---------------------------------|
D|--2-2--5-5--4-4--7-7--5-5--9-9--7-7--9-|x3 |-2-2--5-5--4-4--7-7--5-5--4-4--2-|
A|--2-2--5-5--4-4--7-7--5-5--9-9--7-7--9-|   |-2-2--5-5--4-4--7-7--5-5--4-4--2-|
E|--0-0--3-3--2-2--5-5--3-3--7-7--5-5--7-|   |-0-0--3-3--2-2--5-5--3-3--2-2--0-|






Calificar esta versión:
Aviso: Este fichero es trabajo propio de su transcriptor y representa su interpretación personal de la canción. El material contenido en esta página es para exclusivo uso privado, por lo que se prohibe su reproducción o retransmisión, así como su uso para fines comerciales.