Freak Tu Show, Electric Co (tablatura)

Autor: Anónimo | 38698 visualizaciones

Bueno esta es una buena rola de esta banda
que yeah tiene mucho futuro..
Claro hablo de ELECTRIC CO.  Freak tu show!!

Intro:

Voy voy voy voy voy sin razón
pensar que solo puede puede ser atracción..

(Aquí comienza esta parte del intro)
E-----------------------------------
B-----------------------------------
G-----3b----3p5h3----------3-0-3-5-0   x5
D------------------5--0----3-0-3-5-0
A-----------------------------------
E-----------------------------------

Estoy ,Estoy ,Estoy ,Estoy en ardor
pensar que solo pido un poco de sudor.
Soy soy soy soy soy camaleón
reptil de sangre fría que busca su color
Y digo voy, voy, voy con presión

Después la parte final del intro va asi:

siento que no puedo detener tu adicción.

E-------------------------------
B-------------------------------
G------3b-0-5-0-3-0-3-0-3-0-3-0-
D------3b-0-5-0-3-0-3-0-3-0-3-0-
A-------------------------------
E-------------------------------

Al termino comienza lo siguiente:

E-----------------------------------
B-----------------------------------
G--------------------------5-3------  x3
D--------------------------3-1------
A--3-5-5-5-3-5-5-3-3-5-5-5----------
E--1-3-3-3-1-3-3-3-1-3-3-3----------

Al fin de eso va así:

E-----------------------------------
B-----------------------------------
G-----------------------------------
D-----------------------------------
A--3-5-5-5-3-5-5-5-3-5-5-5----------
E--1-3-3-3-1-3-3-3-1-3-3-3-0-1-2-3--

VERSO:
Parte I:

Cual es la clave para entrar a tu freak show
cuándo acaricias a este niño mujer
y la manera para hablar de religión


E---------------------------------
B---------------------------------
G--------------------------------- X3
D---------------------------------
A---------------------------3-1---
E-1-3-3-3--1-3-3-3--1-3-3-3-------
P.M………………………………………………………………………………

Parte II:

Esto es por la parte que dice :

cuando acaricias a la cruz de tu piel.
E---------------------------------
B---------------------------------
G---------------------------------
D---------------------------------
A---------------------------------
E-1-3-3-3-1-3-3-3-1-3-3-3-0-1-2-3-
P.M-------------------------------

VERSO PARTE I:

E---------------------------------
B---------------------------------
G--------------------------------- X3
D---------------------------------
A---------------------------3-1---
E-1-3-3-3--1-3-3-3--1-3-3-3-------
P.M………………………………………………………………………………

VERSO PARTE II:

deja deja deja de ser.
E---------------------------------
B---------------------------------
G---------------------------------
D---------------------------------
A---------------------------------
E-1-3-3-3--1-3-3-3--1-3-3-3-0-1---
P.M…………………………………………………………………………

PRECORO:

Cuando me miras y sientes otros cuerpos

E--------------------------------
B--------------------------------
G--------------------------------
D--------------------------------
A-5-5-5-5-5-5-10-10-10-10-10-10--
E-3-3-3-3-3-3-8--8--8--8--8--8---

CORO:

que me provoca por dentro

E-------------------------
B-------------------------
G---------------2----2---2
D-8-8-8-7-7-7-5-2----2---2
A-6-6-6-5-5-5-3-0--3-0-3-0
E-------------------------

y que me rasga la piel


E-------------------------------
B-------------------------------
G-------------------------------
D-8-8-8-7-7-7-5-5--5-5-5-5------
A-6-6-6-5-5-5-3-3--3-3-3-3------
E-------------------------------


que no me escuches presiento
E----------------------------
B----------------------------
G----------------------------
D----------------------------
A-10-10-10-9-9-9-3-4--4-0-4-0
E-8--8--8--7-7-7-5-2--2-0-2-0

ya no me miras mujer

E----------------------------
B----------------------------
G----------------------------
D----------------------------
A-10-10-10-9-9-9-7--7-7-7----
E-8--8--8--7-7-7-5--5-5-5----

Se repite el coro..enseguida esto:

E-----------------------------
B-----------------------------
G-----------------------------
D-----------------------------
A-14-14-14-14-14-14-14-14-14-14
E-12-12-12-12-12-12-12-12-12-12


Se repite lo de el INTRO en esta parte:

voy voy voy voy sin razón
pensar que solo puedo y debo ser diversión
y digo voy voy voy con presión
sintiendo que no puedo detener tu reacción.

La parte I del VERSO:

Es el calor que te seca por dentro
cuando controlas tus impulsos mujer
y la manera que se vuelve tu freak show

La parte II del verso:

deja deja dejar de ser

Parte del PRECORO:

Cuando respiras y mientes de tus vicios

CORO:
que me carcome por dentro
y que me rasga la piel
que no me escuches presiento
ya no me mires mujer

Antes del solo va esta parte:

E----     ---      ---
B----     ---      ---
G----     ---      ---
D----X10  --- X 20 --- X20
A-14-     -12      -14
E-12-     -10      -12

SOLO:

E---------------------------------
B---------------------------------
G--12b-12b-12b-12b-12b-14b-14b-12b X7
D---------------------------------
A---------------------------------
E---------------------------------
 En verdad es muy fácil y parece que usa el wah..

Luego la parte del final:

voy voy voy sin razón
pensar que solo puede puede ser atracción
voy voy voy sin amor
pensar que solo puede y debo ser diversión
E-----------------------------------
B-----------------------------------
G--------------------------5-3------ x4
D--------------------------3-1------
A--3-5-5-5-3-5-5-3-3-5-5-5----------
E--1-3-3-3-1-3-3-3-1-3-3-3----------

Bueno eso es todo la dedico a mis amigos de CUAUTEROCK..
"LOS HURRY UPS" y El "JET SET" Que adoramos el rock!!.
Transcripcion por FABIAN REYES.
Calificar esta versión:
Aviso: Este fichero es trabajo propio de su transcriptor y representa su interpretación personal de la canción. El material contenido en esta página es para exclusivo uso privado, por lo que se prohibe su reproducción o retransmisión, así como su uso para fines comerciales.