El Niño Sin Amor (sinfonico), El Tri (bajo)

Autor: angel_pitagoras | 36711 visualizaciones

La afinación es normal estándar, esta versión es cuando el tri toco en sinfónico así que esta versión no les servirá para todas las versiones pero en lo personal la que yo prefiero es la sinfónica.

Intro:
G ---15/1--------------------
D ---------------------------
A ---------------------------
E ---------------------------

E ------3-33-5-55------------
A -7-77-----------3-33-------
D ---------------------------  (x 4)
G ---------------------------


El nació…
E ------3-33-5-55------------
A -7-77-----------3-33-------
D ---------------------------
G ---------------------------

Yo no sé… 
E ------3-33-5-55------------
A -7-77-----------3-33-------
D ---------------------------
G ---------------------------

Ese niño nunca… 
E ------3-33-5-55------------
A -7-77-----------3-33-------
D ---------------------------
G ---------------------------

Ese niño no…
E -3-33-7-77-3-33-7-77-------
A ---------------------------
D ---------------------------
G ---------------------------


Mendingo, suplicó…
E ------3-33-5-55------------
A -7-77-----------3-33-------
D ---------------------------
G ---------------------------

Aprendió a vivir… 
E ------3-33-5-55------------
A -7-77-----------3-33-------
D ---------------------------
G ---------------------------

Entendió que la vida… 
E ------3-33-5-55------------
A -7-77-----------3-33-------
D ---------------------------
G ---------------------------

Ese niño no…
E -3-33-7-77-3-33-7-77-------
A ---------------------------
D ---------------------------
G ---------------------------


Al fin del…
E ------3-33-5-55------------
A -7-77-----------3-33-------
D ---------------------------
G ---------------------------

Entendió sin querer… 
E ------3-33-5-55------------
A -7-77-----------3-33-------
D ---------------------------
G ---------------------------

Porque ese niño… 
E ------3-33-5-55------------
A -7-77-----------3-33-------
D ---------------------------
G ---------------------------


Ese niño no…
E -3-33-7-77-3-33-7-77-------
A ---------------------------  
D ---------------------------   
G ---------------------------

E -3-33-7-77-3-33-7-77-3-----
A ---------------------------  
D ---------------------------  
G ---------------------------


(Silencio y luego base)
E ------3-33-5-55------------
A -7-77-----------3-33-------
D ---------------------------  (x 18)
G ---------------------------

Al fin del…
E ------3-33-5-55------------
A -7-77-----------3-33-------
D ---------------------------
G ---------------------------

Entendió sin querer… 
E ------3-33-5-55------------
A -7-77-----------3-33-------
D ---------------------------
G ---------------------------

Aprendió que la vida… 
E ------3-33-5-55------------
A -7-77-----------3-33-------
D ---------------------------
G ---------------------------

Ese niño no…
E -3-33-7-77-3-33-7-77-------
A ---------------------------  
D ---------------------------   
G ---------------------------


El nació…
E ------3-33-5-55------------
A -7-77-----------3-33-------
D ---------------------------
G ---------------------------

Yo no sé… 
E ------3-33-5-55------------
A -7-77-----------3-33-------
D ---------------------------
G ---------------------------

Ese niño nunca… 
E ------3-33-5-55------------
A -7-77-----------3-33-------
D ---------------------------
G ---------------------------

Ese niño no…
E -3-33-7-77-3-33-7-77-------
A ---------------------------  
D ---------------------------   
G ---------------------------

Ese niño no…
E -3-33-7-77-3-33-7----------
A ---------------------------  
D ---------------------------   
G ---------------------------

Final:
E -121212121212--------------
A ---------------------------  
D --------------------------- (es doce no uno dos)  
G ---------------------------

Comentarios del colaborador: pzz aki les deje el tab de bajo del tri, espero que sea correcto y que les guste brothers ok, adios y cuidense banda

Calificar esta versión:
Aviso: Este fichero es trabajo propio de su transcriptor y representa su interpretación personal de la canción. El material contenido en esta página es para exclusivo uso privado, por lo que se prohibe su reproducción o retransmisión, así como su uso para fines comerciales.