Vela, El Soldado (tablatura)

Autor: Anónimo | 42843 visualizaciones

1° PUNTEO

1|------|---------|-------|-----3-------------------|---------|-------|
2|-1p3~-|-5---6-3-|-5-6-3-|-5-6----6-5-3-------1-3~-|-5--6-3~-|-6-5-3-|
3|------|---------|-------|----------------0-2------|---------|-------|

1|------3-----3-5-|-3-1----|
2|-5-6------6-----|-----5~-|
3|----------------|--------|

2° PUNTEO

1|------------3-----------|
2|--3~--3-5-6---6-5-1/3~--|

1|------------3---------------|
2|--3~--3-5-6---6-5-6-5-3-3~--|

1|------------3-------5-3---3----------------------|
2|--3~--3-5-6---6-5-6-----6---6-5-6--5-3-5--3/1-3--|

1|------------3-----------|
2|--3~--3-5-6---6-5-1/3~--|

1|------------3---------------|
2|--3~--3-5-6---6-5-6-5-3-3~--|

1|------------3-------5-3---3---3-5~~-------|
2|--3~--3-5-6---6-5-6---------6-------------|

p = Pisar
~ = Vibrar
/ = Arrastre

Dm               F
Alas rotas, sueños quebrantados
Dm               C
que no te dejan dar un paso atras
Dm               F
Y da perdida al otro lado,
Dm               C
deseos que son tierras sin conquistar

Punteo 2

Dm                 F
Todo ha terminado, no queda nada
Dm               C
ni siquiera un pedazo de aquel lugar
Dm                     F
En donde el tiempo fue nuestro aliado
Dm                 C
me enferma tenerlo que aceptar

Puente:

               Bb     C    Dm
Que te has evaporado sin dejar
        Bb     C    Dm
huellas que me hagan llegar
       Bb     C      Dm      A
a tu cuerpo y liberarme la piel

Estribillo:

       Dm      Bb
Donde estas?
        F       C
me has dejado solo tempestad
       Dm      Bb
deja ya
        C
de matarme sin piedad
       Dm      Bb
Donde estas?
        F       C
he perdido hasta la identidad
       Dm      Bb
que mas da,
      C
desde que tu ya no estas
          Dm C Bb                Dm C
No me queda nada,     no me queda nada
          Dm C Bb        A
no me queda nada      de ti

Solo (proximamente)

Alas rotas, sueños quebrantados
que no te dejan dar un paso atras
Y da perdida al otro lado,
deseos que se vuelven a esfumar

Es algo que no puedes evitar
un temor sin contrlar
juego que te hace perder el sentido del ayer

Estribillo

La intro la arregle de la version anterior y agrege los acordes y letra
Temazo... nada mas
Calificar esta versión:
Aviso: Este fichero es trabajo propio de su transcriptor y representa su interpretación personal de la canción. El material contenido en esta página es para exclusivo uso privado, por lo que se prohibe su reproducción o retransmisión, así como su uso para fines comerciales.