Un Tiempo En Monserrat, El Soldado (acordes)

Autor: Anónimo | 36032 visualizaciones

a7bbcdmgmlami
El mejor tema de El Soldado


  Dm  C   Bb  A7  Gm
1|-5-|-3-|-1-|-5-|-3-|
2|-6-|-5-|-3-|-5-|-3-|
3|-7-|-5-|-3-|-6-|-3-|
4|-7-|-5-|-3-|-5-|-5-|
5|-5-|-3-|-1-|-7-|-5-|
6|-x-|-x-|-x-|-5-|-3-|

Intro: Dm C Bb A7 x2

Dm                 C
Pura fiebre mi heroína
Bb             A7  [Riff 1]
recuérdo su lunar
Dm                  C
Era la reina de la noche
Bb                A7
en el Cabo Monserrat

Gm                   Dm
Acurrucada en sus caricias
Gm                 Dm
entre Bahos de Pernaut
Gm                   Dm
Me enseñó cómo escondía
Bb                   A7
la tristeza su acordeón

Volveré a los domingos
de Vervena en Monparnasse? [riff 2]
Preguntába y se reía
loco el rouge junto al lunar

Acurrucada en sus caricias
entre Bahos de Pernaut
Me enseño como escondía
la tristeza su acordeón

Base: Dm  C  Bb  A7

Solo
1|-13/15-13------------------------------------------
2|----------13/15-15---15-13-------------13-13/15-13-
3|-10/12-10------------------14/12-12/14-------------
4|----------10/12-12---12-10-------------10-10/12-10-
5|---------------------------12/10-10/12-------------
6|---------------------------------------------------

1|----10-12-13-13------------------------------------|
2|----------------13h15-13---------------------------|
3|-12----------------------12h14-12-10h12-10-12-10/--|
4|---------------------------------------------------|
5|---------------------------------------------------|
6|---------------------------------------------------|

Volveré a los domingos
de Vervena en Monparnasse? [riff 1]
Preguntába y se reía
loco el rouge junto al lunar [riff 2]

La francésa Mi heroína
la del Cabo Monserrat
Me enseño que en la vida
jamás pierda la ilusión

Riff 1
1|-12p10-9-9/10b-|
2|---------------|
3|---------------|

riff 2
1|-----------------|
2|-----------------|
3|-12/10-10/5-5/7b-|
Calificar esta versión:
Aviso: Este fichero es trabajo propio de su transcriptor y representa su interpretación personal de la canción. El material contenido en esta página es para exclusivo uso privado, por lo que se prohibe su reproducción o retransmisión, así como su uso para fines comerciales.