Little Trip, El Soldado (acordes)

Autor: Anónimo | 37109 visualizaciones

aa7amam7bee7emaj7
   E Emaj7 E7  A   A7  Am  B
1|-7-|-7-|-7-|-5-|-5-|-5-|-7-|
2|-9-|-9-|-9-|-5-|-5-|-5-|-7-|
3|-9-|-8-|-7-|-6-|-6-|-5-|-8-|
4|-9-|-9-|-9-|-7-|-5-|-7-|-9-|
5|-7-|-7-|-7-|-7-|-7-|-7-|-9-|
6|-x-|-x-|-x-|-5-|-5-|-5-|-7-|

Intro
Base: E  Emaj7  E7  A  A7  Am7

1|-------------------------------------------------------|
2|-12-12-12-12-12-12-12/14-12-10/9/10-10-10-12-10-9/10/9-|
3|-------------------------------------------------------|
4|-------------------------------------------------------|
5|-------------------------------------------------------|
6|-------------------------------------------------------|

E                     Emaj7
Dime si la lluvia pregunta por ti
 E7                              A
Dile que estas listo, listo para ir
                   A7
cuando suba los humos
                  Am
a flotar en tu nube

Dime si el arcoiris pregunta por ti
dile que estas listo, listo para ir
cuando suba los humos
a flotar en tu nube     B

       E Emaj7 E7
Y ahi va feee-liz
       E Emaj7 E7
Y ahi va feee-liz
     A                 A7
despues los rayos del sol
        Am
lo traeran de nuevo aqui
B                               E
Ella se pregunta feliz Little trip


Intro


Dime si el arcoiris pregunta por ti
dile que estas listo, listo para ir
cuando suba los humos
a flotar en tu nube

Y ahi va feliz
Y ahi va feliz
despues los rayos del sol
lo traeran de nuevo aqui
Ella se pregunta feliz Little trip



Intro
  +
1|----------------------|
2|-10/9/7-7-10-10b-10-9-|
3|----------------------|
4|----------------------|
5|----------------------|
6|----------------------|
Calificar esta versión:
Aviso: Este fichero es trabajo propio de su transcriptor y representa su interpretación personal de la canción. El material contenido en esta página es para exclusivo uso privado, por lo que se prohibe su reproducción o retransmisión, así como su uso para fines comerciales.