Te Escapas De Mis Brazos, El Perro (tablatura)

Autor: santix52 | 18355 visualizaciones



E-------------------------------------------------|
B-1--1--1--1--1--1--0-----0--0--0--0--0--1--0--1--|
G-------------------------------------------------|
D-------------------------------------------------|
A-------------------------------------------------|
E-------------------------------------------------|

E--------------------------------------------------------------|
B--1--1--1--1--1--3--1--5--3-----3--3--3--3--3--5--3--1--0--1--|
G--------------------------------------------------------------|
D--------------------------------------------------------------|
A--------------------------------------------------------------|
E--------------------------------------------------------------|

ritmo de el tema ( escucharlo para poder segirlo)


E---0---|---1---|---3---|
B---1---|---1---|---3---|
G---2---|---2---|---4---|
D---2---|---3---|---5---|
A---0---|---3---|---5---|
E---0---|---1---|---3---|

...:::santix52:::...





Calificar esta versión:
Aviso: Este fichero es trabajo propio de su transcriptor y representa su interpretación personal de la canción. El material contenido en esta página es para exclusivo uso privado, por lo que se prohibe su reproducción o retransmisión, así como su uso para fines comerciales.