Chuntaro Stile (intro), El Gran Silencio (acordes)

Autor: les-poul | 39562 visualizaciones

amd


INTRO: Am
      E------------------------------------
      B---------5-6-5--8-8-8-8-6-5-6-5---5-
      G---4-5-7-----------------------7----
      D-7----------------------------------
      A------------------------------------
      E------------------------------------

       Am                                     Am
      E--------------------------------------
      B---------5-6-5--5-5-------------------
      G---4-5-7------------7-5-7-5-4-5-4-----
      D-7--------------------------------6-7-
      A--------------------------------------
      E--------------------------------------





Calificar esta versión:
Aviso: Este fichero es trabajo propio de su transcriptor y representa su interpretación personal de la canción. El material contenido en esta página es para exclusivo uso privado, por lo que se prohibe su reproducción o retransmisión, así como su uso para fines comerciales.