Todo Me Chupa Un Huevo, El Dipy (tablatura)

Autor: Anónimo | 36710 visualizaciones



Un temazo del dipy:

Intro:
5-----6-5-3---6-5---------
6---3-------3-------------


Gm
Todo me chupa un huevo,

todo me chupa un huevo.


aH!

Teclado:

1--33333--1--3--33333--6--3---(x2)

Despues:

1--10-8-10-8-10----------10-8-10-8---------
2---------------10101010-----------11-8----


1--10-8-10-8-10----------10-8-10-8---------
2---------------10101010-----------8-------

1---11-11-11------------------------------------
2--8--8--8-----7--7--7-7-8----------------------
3-----------777-77-77-7---7---------------------

1---11-11-11-11----------------------------------
2--8--8--8--8-------7777-10101010-7-10-7-10-8-8---
3---------------7777-----------------------------


      D5
Si te jode que te digan negro
       Gm
y te señalen por ser cumbiero
          Cm
hace como yo y canta conmigo
    D#               D5
que todo te chupa un huevo


        D5
si sos floger , si sos cheto, si sos emo
         Gm
a todo ustedes te los corremos
                    Cm
no importa que nos traten a todos de negros
        D#                D5
por que todo ns chupa un huevo.


Gm
  y  ahora cantan los pibes y las pibas…


Gm
Todo me chupa un huevo,

todo me chupa un huevo.(x2)


Y repite todo lo mismo. Espero que les haya gustado un abrazo.





Calificar esta versión:
Aviso: Este fichero es trabajo propio de su transcriptor y representa su interpretación personal de la canción. El material contenido en esta página es para exclusivo uso privado, por lo que se prohibe su reproducción o retransmisión, así como su uso para fines comerciales.